  0
SECTION
  2
HEADER
  9
$ACADVER
  1
AC1015
  9
$ACADMAINTVER
 70
    11
  9
$DWGCODEPAGE
  3
ANSI_950
  9
$INSBASE
 10
0.0
 20
0.0
 30
0.0
  9
$EXTMIN
 10
-17.0
 20
-54.51425620957143
 30
-36.44690213228051
  9
$EXTMAX
 10
222.3135476476282
 20
101.7414678001123
 30
31.44690213228114
  9
$LIMMIN
 10
0.0
 20
0.0
  9
$LIMMAX
 10
420.0
 20
297.0
  9
$ORTHOMODE
 70
     0
  9
$REGENMODE
 70
     1
  9
$FILLMODE
 70
     1
  9
$QTEXTMODE
 70
     0
  9
$MIRRTEXT
 70
     0
  9
$LTSCALE
 40
1.199999999999999
  9
$ATTMODE
 70
     1
  9
$TEXTSIZE
 40
2.5
  9
$TRACEWID
 40
1.0
  9
$TEXTSTYLE
  7
型式2
  9
$CLAYER
  8
0
  9
$CELTYPE
  6
BYLAYER
  9
$CECOLOR
 62
   256
  9
$CELTSCALE
 40
1.0
  9
$DISPSILH
 70
     0
  9
$DIMSCALE
 40
1.0
  9
$DIMASZ
 40
1.0
  9
$DIMEXO
 40
0.7
  9
$DIMDLI
 40
3.75
  9
$DIMRND
 40
0.0
  9
$DIMDLE
 40
0.0
  9
$DIMEXE
 40
0.3
  9
$DIMTP
 40
0.0
  9
$DIMTM
 40
0.0
  9
$DIMTXT
 40
1.199999999999999
  9
$DIMCEN
 40
2.5
  9
$DIMTSZ
 40
0.0
  9
$DIMTOL
 70
     0
  9
$DIMLIM
 70
     0
  9
$DIMTIH
 70
     0
  9
$DIMTOH
 70
     0
  9
$DIMSE1
 70
     0
  9
$DIMSE2
 70
     0
  9
$DIMTAD
 70
     1
  9
$DIMZIN
 70
     8
  9
$DIMBLK
  1

  9
$DIMASO
 70
     1
  9
$DIMSHO
 70
     1
  9
$DIMPOST
  1

  9
$DIMAPOST
  1

  9
$DIMALT
 70
     0
  9
$DIMALTD
 70
     3
  9
$DIMALTF
 40
0.03937007874016
  9
$DIMLFAC
 40
1.0
  9
$DIMTOFL
 70
     1
  9
$DIMTVP
 40
0.0
  9
$DIMTIX
 70
     0
  9
$DIMSOXD
 70
     0
  9
$DIMSAH
 70
     0
  9
$DIMBLK1
  1

  9
$DIMBLK2
  1

  9
$DIMSTYLE
  2
ISO-25
  9
$DIMCLRD
 70
     3
  9
$DIMCLRE
 70
     3
  9
$DIMCLRT
 70
     2
  9
$DIMTFAC
 40
1.0
  9
$DIMGAP
 40
0.5
  9
$DIMJUST
 70
     0
  9
$DIMSD1
 70
     0
  9
$DIMSD2
 70
     0
  9
$DIMTOLJ
 70
     0
  9
$DIMTZIN
 70
     8
  9
$DIMALTZ
 70
     0
  9
$DIMALTTZ
 70
     0
  9
$DIMUPT
 70
     0
  9
$DIMDEC
 70
     2
  9
$DIMTDEC
 70
     8
  9
$DIMALTU
 70
     2
  9
$DIMALTTD
 70
     3
  9
$DIMTXSTY
  7
STANDARD
  9
$DIMAUNIT
 70
     0
  9
$DIMADEC
 70
     0
  9
$DIMALTRND
 40
0.0
  9
$DIMAZIN
 70
     0
  9
$DIMDSEP
 70
    46
  9
$DIMATFIT
 70
     3
  9
$DIMFRAC
 70
     0
  9
$DIMLDRBLK
  1

  9
$DIMLUNIT
 70
     2
  9
$DIMLWD
 70
    -2
  9
$DIMLWE
 70
    -2
  9
$DIMTMOVE
 70
     0
  9
$LUNITS
 70
     2
  9
$LUPREC
 70
     4
  9
$SKETCHINC
 40
1.0
  9
$FILLETRAD
 40
0.0
  9
$AUNITS
 70
     0
  9
$AUPREC
 70
     0
  9
$MENU
  1
.
  9
$ELEVATION
 40
0.0
  9
$PELEVATION
 40
0.0
  9
$THICKNESS
 40
0.0
  9
$LIMCHECK
 70
     0
  9
$CHAMFERA
 40
0.0
  9
$CHAMFERB
 40
0.0
  9
$CHAMFERC
 40
20.0
  9
$CHAMFERD
 40
0.0
  9
$SKPOLY
 70
     0
  9
$TDCREATE
 40
2452648.449707060
  9
$TDUCREATE
 40
2452648.116373726
  9
$TDUPDATE
 40
2453022.587995324
  9
$TDUUPDATE
 40
2453022.254661991
  9
$TDINDWG
 40
0.9285799884
  9
$TDUSRTIMER
 40
0.9285798727
  9
$USRTIMER
 70
     1
  9
$ANGBASE
 50
0.0
  9
$ANGDIR
 70
     0
  9
$PDMODE
 70
     0
  9
$PDSIZE
 40
0.0
  9
$PLINEWID
 40
0.0
  9
$SPLFRAME
 70
     0
  9
$SPLINETYPE
 70
     6
  9
$SPLINESEGS
 70
    30
  9
$HANDSEED
  5
13AD4
  9
$SURFTAB1
 70
     6
  9
$SURFTAB2
 70
     6
  9
$SURFTYPE
 70
     6
  9
$SURFU
 70
     6
  9
$SURFV
 70
     6
  9
$UCSBASE
  2

  9
$UCSNAME
  2

  9
$UCSORG
 10
0.0
 20
0.0
 30
0.0
  9
$UCSXDIR
 10
1.0
 20
0.0
 30
0.0
  9
$UCSYDIR
 10
0.0
 20
1.0
 30
0.0
  9
$UCSORTHOREF
  2

  9
$UCSORTHOVIEW
 70
     0
  9
$UCSORGTOP
 10
0.0
 20
0.0
 30
0.0
  9
$UCSORGBOTTOM
 10
0.0
 20
0.0
 30
0.0
  9
$UCSORGLEFT
 10
0.0
 20
0.0
 30
0.0
  9
$UCSORGRIGHT
 10
0.0
 20
0.0
 30
0.0
  9
$UCSORGFRONT
 10
0.0
 20
0.0
 30
0.0
  9
$UCSORGBACK
 10
0.0
 20
0.0
 30
0.0
  9
$PUCSBASE
  2

  9
$PUCSNAME
  2

  9
$PUCSORG
 10
0.0
 20
0.0
 30
0.0
  9
$PUCSXDIR
 10
1.0
 20
0.0
 30
0.0
  9
$PUCSYDIR
 10
0.0
 20
1.0
 30
0.0
  9
$PUCSORTHOREF
  2

  9
$PUCSORTHOVIEW
 70
     0
  9
$PUCSORGTOP
 10
0.0
 20
0.0
 30
0.0
  9
$PUCSORGBOTTOM
 10
0.0
 20
0.0
 30
0.0
  9
$PUCSORGLEFT
 10
0.0
 20
0.0
 30
0.0
  9
$PUCSORGRIGHT
 10
0.0
 20
0.0
 30
0.0
  9
$PUCSORGFRONT
 10
0.0
 20
0.0
 30
0.0
  9
$PUCSORGBACK
 10
0.0
 20
0.0
 30
0.0
  9
$USERI1
 70
     0
  9
$USERI2
 70
     0
  9
$USERI3
 70
     0
  9
$USERI4
 70
     0
  9
$USERI5
 70
     0
  9
$USERR1
 40
0.0
  9
$USERR2
 40
0.0
  9
$USERR3
 40
0.0
  9
$USERR4
 40
0.0
  9
$USERR5
 40
0.0
  9
$WORLDVIEW
 70
     1
  9
$SHADEDGE
 70
     3
  9
$SHADEDIF
 70
    70
  9
$TILEMODE
 70
     1
  9
$MAXACTVP
 70
    48
  9
$PINSBASE
 10
0.0
 20
0.0
 30
0.0
  9
$PLIMCHECK
 70
     0
  9
$PEXTMIN
 10
1.000000000000000E+20
 20
1.000000000000000E+20
 30
1.000000000000000E+20
  9
$PEXTMAX
 10
-1.000000000000000E+20
 20
-1.000000000000000E+20
 30
-1.000000000000000E+20
  9
$PLIMMIN
 10
0.0
 20
0.0
  9
$PLIMMAX
 10
420.0
 20
297.0
  9
$UNITMODE
 70
     0
  9
$VISRETAIN
 70
     1
  9
$PLINEGEN
 70
     0
  9
$PSLTSCALE
 70
     1
  9
$TREEDEPTH
 70
  3020
  9
$CMLSTYLE
  2
STANDARD
  9
$CMLJUST
 70
     0
  9
$CMLSCALE
 40
20.0
  9
$PROXYGRAPHICS
 70
     1
  9
$MEASUREMENT
 70
     0
  9
$CELWEIGHT
370
    -1
  9
$ENDCAPS
280
     0
  9
$JOINSTYLE
280
     0
  9
$LWDISPLAY
290
     0
  9
$INSUNITS
 70
     4
  9
$HYPERLINKBASE
  1

  9
$STYLESHEET
  1
AAA.ctb
  9
$XEDIT
290
     1
  9
$CEPSNTYPE
380
     0
  9
$PSTYLEMODE
290
     1
  9
$FINGERPRINTGUID
  2
{39E6D4C8-9137-4BAE-85E5-615910EF8948}
  9
$VERSIONGUID
  2
{2FD83E1C-58EF-4A3A-B73B-F32652AB5A9A}
  9
$EXTNAMES
290
     1
  9
$PSVPSCALE
 40
0.0
  9
$OLESTARTUP
290
     0
  0
ENDSEC
  0
SECTION
  2
CLASSES
  0
CLASS
  1
ACDBDICTIONARYWDFLT
  2
AcDbDictionaryWithDefault
  3
AutoCAD 2000
 90
        0
280
     0
281
     0
  0
CLASS
  1
ACDBPLACEHOLDER
  2
AcDbPlaceHolder
  3
AutoCAD 2000
 90
        0
280
     0
281
     0
  0
CLASS
  1
LAYOUT
  2
AcDbLayout
  3
AutoCAD 2000
 90
        0
280
     0
281
     0
  0
CLASS
  1
DICTIONARYVAR
  2
AcDbDictionaryVar
  3
AutoCAD 2000
 90
        0
280
     0
281
     0
  0
CLASS
  1
PLOTSETTINGS
  2
AcDbPlotSettings
  3
AutoCAD 2000
 90
        0
280
     0
281
     0
  0
CLASS
  1
LONG_TRANSACTION
  2
AcDbLongTransaction
  3
AutoCAD 2000
 90
    32768
280
     0
281
     0
  0
CLASS
  1
LWPOLYLINE
  2
AcDbPolyline
  3
AutoCAD 2000
 90
    32768
280
     0
281
     1
  0
CLASS
  1
HATCH
  2
AcDbHatch
  3
AutoCAD 2000
 90
    32768
280
     0
281
     1
  0
CLASS
  1
XRECORD
  2
AcDbXrecord
  3
AutoCAD 2000
 90
    32768
280
     0
281
     0
  0
CLASS
  1
LONG_TRANSACTION
  2
AcDbLongTransaction
  3
AutoCAD 2000
 90
    32768
280
     0
281
     0
  0
CLASS
  1
LWPOLYLINE
  2
AcDbPolyline
  3
AutoCAD 2000
 90
    32768
280
     0
281
     1
  0
CLASS
  1
HATCH
  2
AcDbHatch
  3
AutoCAD 2000
 90
    32768
280
     0
281
     1
  0
CLASS
  1
XRECORD
  2
AcDbXrecord
  3
AutoCAD 2000
 90
    32768
280
     0
281
     0
  0
CLASS
  1
LONG_TRANSACTION
  2
AcDbLongTransaction
  3
AutoCAD 2000
 90
    32768
280
     0
281
     0
  0
CLASS
  1
LWPOLYLINE
  2
AcDbPolyline
  3
AutoCAD 2000
 90
    32768
280
     0
281
     1
  0
CLASS
  1
HATCH
  2
AcDbHatch
  3
AutoCAD 2000
 90
    32768
280
     0
281
     1
  0
CLASS
  1
XRECORD
  2
AcDbXrecord
  3
AutoCAD 2000
 90
    32768
280
     0
281
     0
  0
CLASS
  1
LONG_TRANSACTION
  2
AcDbLongTransaction
  3
AutoCAD 2000
 90
    32768
280
     0
281
     0
  0
CLASS
  1
LWPOLYLINE
  2
AcDbPolyline
  3
AutoCAD 2000
 90
    32768
280
     0
281
     1
  0
CLASS
  1
HATCH
  2
AcDbHatch
  3
AutoCAD 2000
 90
    32768
280
     0
281
     1
  0
CLASS
  1
XRECORD
  2
AcDbXrecord
  3
AutoCAD 2000
 90
    32768
280
     0
281
     0
  0
ENDSEC
  0
SECTION
  2
TABLES
  0
TABLE
  2
VPORT
  5
8
330
0
100
AcDbSymbolTable
 70
     2
  0
VPORT
  5
13AB3
330
8
100
AcDbSymbolTableRecord
100
AcDbViewportTableRecord
  2
*Active
 70
     0
 10
0.0
 20
0.0
 11
1.0
 21
1.0
 12
100.5243319994802
 22
24.07029119962116
 13
0.0
 23
0.0
 14
10.0
 24
10.0
 15
10.0
 25
10.0
 16
0.0
 26
0.0
 36
1.0
 17
0.0
 27
0.0
 37
0.0
 40
157.303970259716
 41
1.936974789915966
 42
50.0
 43
0.0
 44
0.0
 50
0.0
 51
0.0
 71
     0
 72
 20000
 73
     1
 74
     0
 75
     0
 76
     0
 77
     0
 78
     1
281
     0
 65
     1
110
0.0
120
0.0
130
0.0
111
1.0
121
0.0
131
0.0
112
0.0
122
1.0
132
0.0
 79
     0
146
0.0
  0
ENDTAB
  0
TABLE
  2
LTYPE
  5
5
330
0
100
AcDbSymbolTable
 70
     4
  0
LTYPE
  5
14
330
5
100
AcDbSymbolTableRecord
100
AcDbLinetypeTableRecord
  2
BYBLOCK
 70
     0
  3

 72
    65
 73
     0
 40
0.0
  0
LTYPE
  5
15
330
5
100
AcDbSymbolTableRecord
100
AcDbLinetypeTableRecord
  2
BYLAYER
 70
     0
  3

 72
    65
 73
     0
 40
0.0
  0
LTYPE
  5
16
330
5
100
AcDbSymbolTableRecord
100
AcDbLinetypeTableRecord
  2
CONTINUOUS
 70
     0
  3
連續線 ________________________
 72
    65
 73
     2
 40
200000.0
 49
200000.0
 74
     0
 49
0.0
 74
     0
  0
LTYPE
  5
2D
330
5
100
AcDbSymbolTableRecord
100
AcDbLinetypeTableRecord
  2
CENTER2
 70
     0
  3
Center (.5x) ___ _ ___ _ ___ _ ___ _ ___ _ ___
 72
    65
 73
     4
 40
28.57499999999999
 49
19.05
 74
     0
 49
-3.174999999999998
 74
     0
 49
3.174999999999998
 74
     0
 49
-3.174999999999998
 74
     0
  0
LTYPE
  5
2E
330
5
100
AcDbSymbolTableRecord
100
AcDbLinetypeTableRecord
  2
DASHED2
 70
     0
  3
Dashed (.5x) _ _ _ _ _ _ _ _ _ _ _ _ _ _ _ _ _
 72
    65
 73
     2
 40
9.524999999999996
 49
6.349999999999998
 74
     0
 49
-3.174999999999998
 74
     0
  0
LTYPE
  5
13795
330
5
100
AcDbSymbolTableRecord
100
AcDbLinetypeTableRecord
  2
PHANTOM2
 70
     0
  3
Phantom (.5x) ___ _ _ ___ _ _ ___ _ _ ___ _ _
 72
    65
 73
     6
 40
31.75
 49
15.875
 74
     0
 49
-3.174999999999998
 74
     0
 49
3.174999999999998
 74
     0
 49
-3.174999999999998
 74
     0
 49
3.174999999999998
 74
     0
 49
-3.174999999999998
 74
     0
  0
ENDTAB
  0
TABLE
  2
LAYER
  5
2
102
{ACAD_XDICTIONARY
360
DDEF
102
}
330
0
100
AcDbSymbolTable
 70
    10
  0
LAYER
  5
10
330
2
100
AcDbSymbolTableRecord
100
AcDbLayerTableRecord
  2
0
 70
     0
 62
     7
  6
CONTINUOUS
370
    -3
390
F
  0
LAYER
  5
30
330
2
100
AcDbSymbolTableRecord
100
AcDbLayerTableRecord
  2
虛線
 70
     0
 62
     6
  6
DASHED2
370
    -3
390
F
  0
LAYER
  5
32
330
2
100
AcDbSymbolTableRecord
100
AcDbLayerTableRecord
  2
指線
 70
     0
 62
     3
  6
CONTINUOUS
370
    -3
390
F
  0
LAYER
  5
34
330
2
100
AcDbSymbolTableRecord
100
AcDbLayerTableRecord
  2
中心線
 70
     0
 62
     4
  6
CENTER2
370
    -3
390
F
  0
LAYER
  5
13796
330
2
100
AcDbSymbolTableRecord
100
AcDbLayerTableRecord
  2
建構線
 70
     0
 62
     1
  6
CONTINUOUS
370
    -3
390
F
  0
LAYER
  5
13797
330
2
100
AcDbSymbolTableRecord
100
AcDbLayerTableRecord
  2
假想線
 70
     0
 62
     3
  6
PHANTOM2
370
    -3
390
F
  0
LAYER
  5
139AE
330
2
100
AcDbSymbolTableRecord
100
AcDbLayerTableRecord
  2
CK_LEVEL_1
 70
     0
 62
     7
  6
CONTINUOUS
370
    -3
390
F
  0
LAYER
  5
139E4
330
2
100
AcDbSymbolTableRecord
100
AcDbLayerTableRecord
  2
AM4
 70
     0
 62
     3
  6
CONTINUOUS
370
    15
390
F
  0
LAYER
  5
139E5
330
2
100
AcDbSymbolTableRecord
100
AcDbLayerTableRecord
  2
標註線
 70
     0
 62
     3
  6
CONTINUOUS
370
    15
390
F
  0
LAYER
  5
13A61
330
2
100
AcDbSymbolTableRecord
100
AcDbLayerTableRecord
  2
Defpoints
 70
     0
 62
     7
  6
CONTINUOUS
290
     0
370
    -3
390
F
  0
ENDTAB
  0
TABLE
  2
STYLE
  5
3
330
0
100
AcDbSymbolTable
 70
     2
  0
STYLE
  5
11
330
3
100
AcDbSymbolTableRecord
100
AcDbTextStyleTableRecord
  2
STANDARD
 70
     0
 40
0.0
 41
1.0
 50
0.0
 71
     0
 42
2.5
  3
isocp.shx
  4
chineset.shx
  0
STYLE
  5
58
330
3
100
AcDbSymbolTableRecord
100
AcDbTextStyleTableRecord
  2
型式2
 70
     0
 40
0.0
 41
1.0
 50
0.0
 71
     0
 42
2.5
  3
KAIU.TTF
  4

1001
ACAD
1000
DFKai-SB
1071
    34881
  0
ENDTAB
  0
TABLE
  2
VIEW
  5
6
330
0
100
AcDbSymbolTable
 70
     0
  0
ENDTAB
  0
TABLE
  2
UCS
  5
7
330
0
100
AcDbSymbolTable
 70
     0
  0
ENDTAB
  0
TABLE
  2
APPID
  5
9
330
0
100
AcDbSymbolTable
 70
     4
  0
APPID
  5
12
330
9
100
AcDbSymbolTableRecord
100
AcDbRegAppTableRecord
  2
ACAD
 70
     0
  0
APPID
  5
131A7
330
9
100
AcDbSymbolTableRecord
100
AcDbRegAppTableRecord
  2
CONTENTBLOCKICON
 70
     0
  0
APPID
  5
13880
330
9
100
AcDbSymbolTableRecord
100
AcDbRegAppTableRecord
  2
TCAD
 70
     0
  0
APPID
  5
13881
330
9
100
AcDbSymbolTableRecord
100
AcDbRegAppTableRecord
  2
pntflag
 70
     0
  0
ENDTAB
  0
TABLE
  2
DIMSTYLE
  5
A
330
0
100
AcDbSymbolTable
 70
     2
100
AcDbDimStyleTable
 71
     1
340
27
  0
DIMSTYLE
105
27
330
A
100
AcDbSymbolTableRecord
100
AcDbDimStyleTableRecord
  2
ISO-25
 70
     0
 41
1.0
 42
0.7
 43
3.75
 44
0.3
 73
     0
 74
     0
 77
     1
 78
     8
140
1.199999999999999
141
2.5
143
0.03937007874016
147
0.5
171
     3
172
     1
176
     3
177
     3
178
     2
271
     2
272
     2
274
     3
283
     0
284
     8
340
11
  0
DIMSTYLE
105
13235
330
A
100
AcDbSymbolTableRecord
100
AcDbDimStyleTableRecord
  2
Standard
 70
     0
340
11
  0
ENDTAB
  0
TABLE
  2
BLOCK_RECORD
  5
1
330
0
100
AcDbSymbolTable
 70
    10
  0
BLOCK_RECORD
  5
1F
102
{ACAD_XDICTIONARY
360
131A3
102
}
330
1
100
AcDbSymbolTableRecord
100
AcDbBlockTableRecord
  2
*MODEL_SPACE
340
131AF
  0
BLOCK_RECORD
  5
1B
102
{ACAD_XDICTIONARY
360
131A1
102
}
330
1
100
AcDbSymbolTableRecord
100
AcDbBlockTableRecord
  2
*PAPER_SPACE
340
131B0
  0
BLOCK_RECORD
  5
13743
330
1
100
AcDbSymbolTableRecord
100
AcDbBlockTableRecord
  2
HGH15CA_F
340
0
102
{BLKREFS
331
1377A
102
}
  0
BLOCK_RECORD
  5
1377B
330
1
100
AcDbSymbolTableRecord
100
AcDbBlockTableRecord
  2
I1
340
0
102
{BLKREFS
331
1378C
331
13A21
331
13A32
331
13A36
331
13A37
331
13A38
102
}
  0
BLOCK_RECORD
  5
13782
330
1
100
AcDbSymbolTableRecord
100
AcDbBlockTableRecord
  2
C15_FWI
340
0
102
{BLKREFS
331
13794
102
}
  0
BLOCK_RECORD
  5
13980
330
1
100
AcDbSymbolTableRecord
100
AcDbBlockTableRecord
  2
34310002_f
340
0
102
{BLKREFS
331
13988
102
}
  0
BLOCK_RECORD
  5
139AF
330
1
100
AcDbSymbolTableRecord
100
AcDbBlockTableRecord
  2
A$C5ED11A0C
340
0
  0
BLOCK_RECORD
  5
139B5
330
1
100
AcDbSymbolTableRecord
100
AcDbBlockTableRecord
  2
A$C70F36E6B
340
0
  0
BLOCK_RECORD
  5
139DD
330
1
100
AcDbSymbolTableRecord
100
AcDbBlockTableRecord
  2
A$C031D26F0
340
0
102
{BLKREFS
331
13A08
331
13A09
331
13A10
331
13A11
331
13A4B
331
13A4C
331
13A53
331
13A54
102
}
  0
BLOCK_RECORD
  5
13A41
330
1
100
AcDbSymbolTableRecord
100
AcDbBlockTableRecord
  2
A$C2DAF0CD0
340
0
  0
BLOCK_RECORD
  5
13A7F
330
1
100
AcDbSymbolTableRecord
100
AcDbBlockTableRecord
  2
A$C78B866EC
340
0
  0
ENDTAB
  0
ENDSEC
  0
SECTION
  2
BLOCKS
  0
BLOCK
  5
20
330
1F
100
AcDbEntity
  8
0
100
AcDbBlockBegin
  2
*MODEL_SPACE
 70
     0
 10
0.0
 20
0.0
 30
0.0
  3
*MODEL_SPACE
  1

  0
ENDBLK
  5
21
330
1F
100
AcDbEntity
  8
0
100
AcDbBlockEnd
  0
BLOCK
  5
1C
330
1B
100
AcDbEntity
 67
     1
  8
0
100
AcDbBlockBegin
  2
*PAPER_SPACE
 70
     0
 10
0.0
 20
0.0
 30
0.0
  3
*PAPER_SPACE
  1

  0
ENDBLK
  5
1D
330
1B
100
AcDbEntity
 67
     1
  8
0
100
AcDbBlockEnd
  0
BLOCK
  5
13778
330
13743
100
AcDbEntity
  8
0
100
AcDbBlockBegin
  2
HGH15CA_F
 70
     0
 10
0.0
 20
0.0
 30
0.0
  3
HGH15CA_F
  1

  0
LINE
  5
13744
330
13743
100
AcDbEntity
  8
中心線
 48
0.27
100
AcDbLine
 10
13.0
 20
25.00000000000002
 30
0.0
 11
13.0
 21
15.23963702891816
 31
0.0
  0
LINE
  5
13745
330
13743
100
AcDbEntity
  8
中心線
 48
0.27
100
AcDbLine
 10
-13.00000000000011
 20
25.00000000000002
 30
0.0
 11
-13.00000000000011
 21
15.23963702891816
 31
0.0
  0
LINE
  5
13746
330
13743
100
AcDbEntity
  8
虛線
 48
0.27
100
AcDbLine
 10
11.0
 20
24.15000000000001
 30
0.0
 11
11.0
 21
18.19999999999998
 31
0.0
  0
LINE
  5
13747
330
13743
100
AcDbEntity
  8
虛線
 48
0.27
100
AcDbLine
 10
15.00000000000022
 20
24.15000000000001
 30
0.0
 11
15.00000000000022
 21
18.19999999999998
 31
0.0
  0
LINE
  5
13748
330
13743
100
AcDbEntity
  8
虛線
 48
0.27
100
AcDbLine
 10
14.75
 20
24.15000000000001
 30
0.0
 11
14.75
 21
16.6
 31
0.0
  0
LINE
  5
13749
330
13743
100
AcDbEntity
  8
虛線
 48
0.27
100
AcDbLine
 10
11.25
 20
24.15000000000001
 30
0.0
 11
11.25
 21
16.6
 31
0.0
  0
LINE
  5
1374A
330
13743
100
AcDbEntity
  8
虛線
 48
0.27
100
AcDbLine
 10
-14.75000000000011
 20
24.15000000000001
 30
0.0
 11
-14.75000000000011
 21
16.6
 31
0.0
  0
LINE
  5
1374B
330
13743
100
AcDbEntity
  8
虛線
 48
0.27
100
AcDbLine
 10
-11.25000000000011
 20
24.15000000000001
 30
0.0
 11
-11.25000000000011
 21
16.6
 31
0.0
  0
LINE
  5
1374C
330
13743
100
AcDbEntity
  8
虛線
 48
0.27
100
AcDbLine
 10
-11.00000000000022
 20
24.15000000000001
 30
0.0
 11
-11.00000000000022
 21
18.19999999999998
 31
0.0
  0
LINE
  5
1374D
330
13743
100
AcDbEntity
  8
虛線
 48
0.27
100
AcDbLine
 10
-15.00000000000011
 20
24.15000000000001
 30
0.0
 11
-15.00000000000011
 21
18.19999999999998
 31
0.0
  0
LINE
  5
1374E
330
13743
100
AcDbEntity
  8
0
 48
0.27
100
AcDbLine
 10
19.7000000000002
 20
0.0
 30
0.0
 11
19.7000000000002
 21
24.49999999999999
 31
0.0
  0
LINE
  5
1374F
330
13743
100
AcDbEntity
  8
0
 48
0.27
100
AcDbLine
 10
-19.7000000000002
 20
24.49999999999999
 30
0.0
 11
-19.7000000000002
 21
0.0
 31
0.0
  0
LINE
  5
13750
330
13743
100
AcDbEntity
  8
0
 48
0.27
100
AcDbLine
 10
-19.7000000000002
 20
1.000000000000021
 30
0.0
 11
19.7000000000002
 21
1.000000000000021
 31
0.0
  0
LINE
  5
13751
330
13743
100
AcDbEntity
  8
0
 48
0.27
100
AcDbLine
 10
-19.7000000000002
 20
0.0
 30
0.0
 11
19.7000000000002
 21
0.0
 31
0.0
  0
LINE
  5
13752
330
13743
100
AcDbEntity
  8
0
 48
0.27
100
AcDbLine
 10
-27.70000000130271
 20
19.4999999999352
 30
0.0
 11
-27.70000000130271
 21
-0.0000000000649081
 31
0.0
  0
LINE
  5
13753
330
13743
100
AcDbEntity
  8
0
 48
0.27
100
AcDbLine
 10
-27.70000000130271
 20
-0.0000000000649081
 30
0.0
 11
-19.7000000000002
 21
-0.0000000000649081
 31
0.0
  0
LINE
  5
13754
330
13743
100
AcDbEntity
  8
0
 48
0.27
100
AcDbLine
 10
-27.70000000130271
 20
1.000000001367709
 30
0.0
 11
-19.7000000000002
 21
1.000000001367709
 31
0.0
  0
CIRCLE
  5
13755
330
13743
100
AcDbEntity
  8
0
 48
0.27
100
AcDbCircle
 10
-24.54999999983731
 20
14.9999999985672
 30
0.0
 40
1.899999999674358
  0
LINE
  5
13756
330
13743
100
AcDbEntity
  8
中心線
 48
0.27
100
AcDbLine
 10
-24.54999999983731
 20
17.33995531566791
 30
0.0
 11
-24.54999999983731
 21
12.66004468146639
 31
0.0
  0
LINE
  5
13757
330
13743
100
AcDbEntity
  8
中心線
 48
0.27
100
AcDbLine
 10
-26.88995531693802
 20
14.9999999985672
 30
0.0
 11
-22.21004468273627
 21
14.9999999985672
 31
0.0
  0
CIRCLE
  5
13758
330
13743
100
AcDbEntity
  8
0
 48
0.27
100
AcDbCircle
 10
-24.54999999983731
 20
14.9999999985672
 30
0.0
 40
1.571452208743
  0
CIRCLE
  5
13759
330
13743
100
AcDbEntity
  8
0
 48
0.27
100
AcDbCircle
 10
-24.54999999983731
 20
14.9999999985672
 30
0.0
 40
1.645636899076534
  0
CIRCLE
  5
1375A
330
13743
100
AcDbEntity
  8
0
 48
0.27
100
AcDbCircle
 10
-24.54999999983731
 20
14.9999999985672
 30
0.0
 40
0.7500000010746155
  0
LINE
  5
1375B
330
13743
100
AcDbEntity
  8
0
 48
0.27
100
AcDbLine
 10
-27.70000000130271
 20
19.4999999999352
 30
0.0
 11
-19.70000000130294
 21
19.4999999999352
 31
0.0
  0
LINE
  5
1375C
330
13743
100
AcDbEntity
  8
0
 48
0.27
100
AcDbLine
 10
-27.70000000130271
 20
18.49999999850223
 30
0.0
 11
-19.7000000000002
 21
18.49999999850223
 31
0.0
  0
LINE
  5
1375D
330
13743
100
AcDbEntity
  8
虛線
 48
0.27
100
AcDbLine
 10
-11.25000000000011
 20
16.6
 30
0.0
 11
-13.00000000000011
 21
15.58963702891814
 31
0.0
  0
LINE
  5
1375E
330
13743
100
AcDbEntity
  8
虛線
 48
0.27
100
AcDbLine
 10
-14.75000000000011
 20
16.6
 30
0.0
 11
-13.00000000000011
 21
15.58963702891814
 31
0.0
  0
LINE
  5
1375F
330
13743
100
AcDbEntity
  8
虛線
 48
0.27
100
AcDbLine
 10
-11.25000000000011
 20
16.6
 30
0.0
 11
-14.75000000000011
 21
16.6
 31
0.0
  0
LINE
  5
13760
330
13743
100
AcDbEntity
  8
虛線
 48
0.27
100
AcDbLine
 10
-11.00000000000022
 20
18.19999999999998
 30
0.0
 11
-15.00000000000011
 21
18.19999999999998
 31
0.0
  0
LINE
  5
13761
330
13743
100
AcDbEntity
  8
0
 48
0.27
100
AcDbLine
 10
27.70000000130271
 20
19.4999999999352
 30
0.0
 11
27.70000000130271
 21
-0.0000000000649081
 31
0.0
  0
LINE
  5
13762
330
13743
100
AcDbEntity
  8
0
 48
0.27
100
AcDbLine
 10
27.70000000130271
 20
1.000000001367709
 30
0.0
 11
19.7000000000002
 21
1.000000001367709
 31
0.0
  0
LINE
  5
13763
330
13743
100
AcDbEntity
  8
0
 48
0.27
100
AcDbLine
 10
27.70000000130271
 20
-0.0000000000649081
 30
0.0
 11
19.7000000000002
 21
-0.0000000000649081
 31
0.0
  0
LINE
  5
13764
330
13743
100
AcDbEntity
  8
0
 48
0.27
100
AcDbLine
 10
27.70000000130271
 20
18.49999999850223
 30
0.0
 11
19.7000000000002
 21
18.49999999850223
 31
0.0
  0
LINE
  5
13765
330
13743
100
AcDbEntity
  8
0
 48
0.27
100
AcDbLine
 10
27.70000000130271
 20
19.4999999999352
 30
0.0
 11
19.70000000130294
 21
19.4999999999352
 31
0.0
  0
LINE
  5
13766
330
13743
100
AcDbEntity
  8
虛線
 48
0.27
100
AcDbLine
 10
14.75
 20
16.6
 30
0.0
 11
11.25
 21
16.6
 31
0.0
  0
LINE
  5
13767
330
13743
100
AcDbEntity
  8
虛線
 48
0.27
100
AcDbLine
 10
11.25
 20
16.6
 30
0.0
 11
13.0
 21
15.58963702891814
 31
0.0
  0
LINE
  5
13768
330
13743
100
AcDbEntity
  8
虛線
 48
0.27
100
AcDbLine
 10
14.75
 20
16.6
 30
0.0
 11
13.0
 21
15.58963702891814
 31
0.0
  0
LINE
  5
13769
330
13743
100
AcDbEntity
  8
虛線
 48
0.27
100
AcDbLine
 10
15.00000000000022
 20
18.19999999999998
 30
0.0
 11
11.0
 21
18.19999999999998
 31
0.0
  0
LINE
  5
1376A
330
13743
100
AcDbEntity
  8
中心線
 48
0.27
100
AcDbLine
 10
24.5499999998372
 20
17.33995531566791
 30
0.0
 11
24.5499999998372
 21
12.66004468146639
 31
0.0
  0
CIRCLE
  5
1376B
330
13743
100
AcDbEntity
  8
0
 48
0.27
100
AcDbCircle
 10
24.5499999998372
 20
14.9999999985672
 30
0.0
 40
1.899999999674358
  0
CIRCLE
  5
1376C
330
13743
100
AcDbEntity
  8
0
 48
0.27
100
AcDbCircle
 10
24.5499999998372
 20
14.9999999985672
 30
0.0
 40
1.645636899076534
  0
CIRCLE
  5
1376D
330
13743
100
AcDbEntity
  8
0
 48
0.27
100
AcDbCircle
 10
24.5499999998372
 20
14.9999999985672
 30
0.0
 40
1.571452208743
  0
CIRCLE
  5
1376E
330
13743
100
AcDbEntity
  8
0
 48
0.27
100
AcDbCircle
 10
24.5499999998372
 20
14.9999999985672
 30
0.0
 40
0.7500000010746155
  0
LINE
  5
1376F
330
13743
100
AcDbEntity
  8
中心線
 48
0.27
100
AcDbLine
 10
26.8899553169379
 20
14.9999999985672
 30
0.0
 11
22.21004468273627
 21
14.9999999985672
 31
0.0
  0
LINE
  5
13770
330
13743
100
AcDbEntity
  8
0
 48
0.27
100
AcDbLine
 10
-19.7000000000002
 20
23.50000000000002
 30
0.0
 11
19.7000000000002
 21
23.50000000000001
 31
0.0
  0
LINE
  5
13771
330
13743
100
AcDbEntity
  8
0
 48
0.27
100
AcDbLine
 10
-19.7000000000002
 20
24.49999999999999
 30
0.0
 11
19.7000000000002
 21
24.49999999999999
 31
0.0
  0
LINE
  5
13772
330
13743
100
AcDbEntity
  8
虛線
 48
0.27
100
AcDbLine
 10
-10.65000000000009
 20
24.49999999999999
 30
0.0
 11
-11.00000000000022
 21
24.15000000000001
 31
0.0
  0
LINE
  5
13773
330
13743
100
AcDbEntity
  8
虛線
 48
0.27
100
AcDbLine
 10
-15.00000000000011
 20
24.15000000000001
 30
0.0
 11
-15.34999999999991
 21
24.49999999999999
 31
0.0
  0
LINE
  5
13774
330
13743
100
AcDbEntity
  8
虛線
 48
0.27
100
AcDbLine
 10
-11.00000000000022
 20
24.15000000000001
 30
0.0
 11
-15.00000000000011
 21
24.15000000000001
 31
0.0
  0
LINE
  5
13775
330
13743
100
AcDbEntity
  8
虛線
 48
0.27
100
AcDbLine
 10
15.00000000000022
 20
24.15000000000001
 30
0.0
 11
11.0
 21
24.15000000000001
 31
0.0
  0
LINE
  5
13776
330
13743
100
AcDbEntity
  8
虛線
 48
0.27
100
AcDbLine
 10
11.0
 20
24.15000000000001
 30
0.0
 11
10.6500000000002
 21
24.49999999999999
 31
0.0
  0
LINE
  5
13777
330
13743
100
AcDbEntity
  8
虛線
 48
0.27
100
AcDbLine
 10
15.35000000000002
 20
24.49999999999999
 30
0.0
 11
15.00000000000022
 21
24.15000000000001
 31
0.0
  0
ENDBLK
  5
13779
330
13743
100
AcDbEntity
  8
0
100
AcDbBlockEnd
  0
BLOCK
  5
13780
330
1377B
100
AcDbEntity
  8
0
100
AcDbBlockBegin
  2
I1
 70
     0
 10
0.0
 20
0.0
 30
0.0
  3
I1
  1

  0
LINE
  5
1377C
330
1377B
100
AcDbEntity
  8
中心線
100
AcDbLine
 10
-1.783849796371328
 20
0.0
 30
0.0
 11
3.967787178009643
 21
0.0
 31
0.0
  0
ARC
  5
1377D
330
1377B
100
AcDbEntity
  8
0
100
AcDbCircle
 10
0.335523819494028
 20
0.9802483619828871
 30
0.0
 40
1.220011576012179
100
AcDbArc
 50
105.9630221688284
 51
179.0723572120024
  0
LINE
  5
1377E
330
1377B
100
AcDbEntity
  8
0
100
AcDbLine
 10
-0.88432785935845
 20
1.0
 30
0.0
 11
-0.88432785935845
 21
-1.0
 31
0.0
  0
ARC
  5
1377F
330
1377B
100
AcDbEntity
  8
0
100
AcDbCircle
 10
0.335523819494028
 20
-0.9802483619828871
 30
0.0
 40
1.220011576012179
100
AcDbArc
 50
180.9276427879975
 51
254.0369778311715
  0
ENDBLK
  5
13781
330
1377B
100
AcDbEntity
  8
0
100
AcDbBlockEnd
  0
BLOCK
  5
1378D
330
13782
100
AcDbEntity
  8
0
100
AcDbBlockBegin
  2
C15_FWI
 70
     0
 10
0.0
 20
0.0
 30
0.0
  3
C15_FWI
  1

  0
LINE
  5
13783
330
13782
100
AcDbEntity
  8
0
100
AcDbLine
 10
-2.999999999999772
 20
0.0000000000649081
 30
0.0
 11
-2.999999999999772
 21
10.91980573366498
 31
0.0
  0
LINE
  5
13784
330
13782
100
AcDbEntity
  8
0
100
AcDbLine
 10
-1.5
 20
0.0000000000649081
 30
0.0
 11
-1.5
 21
19.5000000000649
 31
0.0
  0
LINE
  5
13785
330
13782
100
AcDbEntity
  8
0
100
AcDbLine
 10
0.0
 20
19.5000000000001
 30
0.0
 11
0.0
 21
0.0
 31
0.0
  0
LINE
  5
13786
330
13782
100
AcDbEntity
  8
0
100
AcDbLine
 10
-2.999999999999772
 20
0.0000000000649081
 30
0.0
 11
0.0
 21
0.0000000000649081
 31
0.0
  0
LINE
  5
13787
330
13782
100
AcDbEntity
  8
0
100
AcDbLine
 10
0.0
 20
1.000000000064908
 30
0.0
 11
-1.5
 21
1.000000000064908
 31
0.0
  0
LINE
  5
13788
330
13782
100
AcDbEntity
  8
0
100
AcDbLine
 10
-2.999999999999772
 20
12.57000000006518
 30
0.0
 11
-1.5
 21
13.44000000006491
 31
0.0
  0
LINE
  5
13789
330
13782
100
AcDbEntity
  8
0
100
AcDbLine
 10
-2.999999999999772
 20
10.93241362216492
 30
0.0
 11
-3.000000094899974
 21
12.57000020306491
 31
0.0
  0
LINE
  5
1378A
330
13782
100
AcDbEntity
  8
0
100
AcDbLine
 10
0.0
 20
18.50000000006503
 30
0.0
 11
-1.5
 21
18.50000000006503
 31
0.0
  0
LINE
  5
1378B
330
13782
100
AcDbEntity
  8
0
100
AcDbLine
 10
0.0
 20
19.5000000000649
 30
0.0
 11
-1.5
 21
19.5000000000649
 31
0.0
  0
INSERT
  5
1378C
330
13782
100
AcDbEntity
  8
0
100
AcDbBlockReference
  2
I1
 10
-1.5
 20
11.00000000006492
 30
0.0
  0
ENDBLK
  5
1378E
330
13782
100
AcDbEntity
  8
0
100
AcDbBlockEnd
  0
BLOCK
  5
13986
330
13980
100
AcDbEntity
  8
0
100
AcDbBlockBegin
  2
34310002_f
 70
     0
 10
0.0
 20
0.0
 30
0.0
  3
34310002_f
  1

  0
CIRCLE
  5
13981
330
13980
100
AcDbEntity
  8
0
 48
0.27
100
AcDbCircle
 10
0.0
 20
0.0
 30
0.0
 40
0.25
  0
LWPOLYLINE
  5
13982
330
13980
100
AcDbEntity
  8
0
 48
0.27
100
AcDbPolyline
 90
        6
 70
     1
 43
0.0
 10
0.0
 20
2.886751345948127
 10
-2.5
 20
1.44337567297407
 10
-2.5
 20
-1.443375672974056
 10
0.0
 20
-2.88675134594812
 10
2.5
 20
-1.443375672974063
 10
2.5
 20
1.443375672974063
  0
LINE
  5
13983
330
13980
100
AcDbEntity
  8
中心線
 48
0.27
100
AcDbLine
 10
-0.0000000000000003
 20
-4.38675134594812
 30
0.0
 11
-0.0000000000000002
 21
4.386751345948127
 31
0.0
  0
LINE
  5
13984
330
13980
100
AcDbEntity
  8
中心線
 48
0.27
100
AcDbLine
 10
4.0
 20
-0.0000000000000007
 30
0.0
 11
-4.0
 21
-0.0000000000000006
 31
0.0
  0
POINT
  5
13985
330
13980
100
AcDbEntity
  8
0
100
AcDbPoint
 10
2.5
 20
-0.0000000000000007
 30
0.0
1001
pntflag
1000
endpoint
  0
ENDBLK
  5
13987
330
13980
100
AcDbEntity
  8
0
100
AcDbBlockEnd
  0
BLOCK
  5
139B3
330
139AF
100
AcDbEntity
  8
0
100
AcDbBlockBegin
  2
A$C5ED11A0C
 70
     0
 10
0.0
 20
0.0
 30
0.0
  3
A$C5ED11A0C
  1

  0
TEXT
  5
139B0
330
139AF
100
AcDbEntity
  8
CK_LEVEL_1
  6
Continuous
 62
   252
100
AcDbText
 10
0.00000001555361
 20
0.0000001200855166
 30
0.0
 40
4.0
  1
  Co = 1680 KGF
 41
0.6
 51
5.0
100
AcDbText
  0
TEXT
  5
139B1
330
139AF
100
AcDbEntity
  8
CK_LEVEL_1
  6
Continuous
 62
   252
100
AcDbText
 10
0.00000001555361
 20
12.80000012008551
 30
0.0
 40
4.0
  1
LGW15CC
 41
0.6
 51
5.0
100
AcDbText
  0
TEXT
  5
139B2
330
139AF
100
AcDbEntity
  8
CK_LEVEL_1
  6
Continuous
 62
   252
100
AcDbText
 10
0.00000001555361
 20
6.400000120085515
 30
0.0
 40
4.0
  1
  C  = 1040 KGF
 41
0.6
 51
5.0
100
AcDbText
  0
ENDBLK
  5
139B4
330
139AF
100
AcDbEntity
  8
0
100
AcDbBlockEnd
  0
BLOCK
  5
139B9
330
139B5
100
AcDbEntity
  8
0
100
AcDbBlockBegin
  2
A$C70F36E6B
 70
     0
 10
0.0
 20
0.0
 30
0.0
  3
A$C70F36E6B
  1

  0
TEXT
  5
139B6
330
139B5
100
AcDbEntity
  8
CK_LEVEL_1
  6
Continuous
 62
   252
100
AcDbText
 10
0.00000001555361
 20
0.0000001200855166
 30
0.0
 40
4.0
  1
  Co = 1680 KGF
 41
0.6
 51
5.0
100
AcDbText
  0
TEXT
  5
139B7
330
139B5
100
AcDbEntity
  8
CK_LEVEL_1
  6
Continuous
 62
   252
100
AcDbText
 10
0.00000001555361
 20
12.80000012008551
 30
0.0
 40
4.0
  1
LGW15CC
 41
0.6
 51
5.0
100
AcDbText
  0
TEXT
  5
139B8
330
139B5
100
AcDbEntity
  8
CK_LEVEL_1
  6
Continuous
 62
   252
100
AcDbText
 10
0.00000001555361
 20
6.400000120085515
 30
0.0
 40
4.0
  1
  C  = 1040 KGF
 41
0.6
 51
5.0
100
AcDbText
  0
ENDBLK
  5
139BA
330
139B5
100
AcDbEntity
  8
0
100
AcDbBlockEnd
  0
BLOCK
  5
139E2
330
139DD
100
AcDbEntity
  8
0
100
AcDbBlockBegin
  2
A$C031D26F0
 70
     0
 10
0.0
 20
0.0
 30
0.0
  3
A$C031D26F0
  1

  0
LINE
  5
139DE
330
139DD
100
AcDbEntity
  8
中心線
100
AcDbLine
 10
-2.5
 20
0.0
 30
0.0
 11
2.5
 21
0.0
 31
0.0
  0
ARC
  5
139DF
330
139DD
100
AcDbEntity
  8
AM4
100
AcDbCircle
 10
0.0
 20
0.0
 30
0.0
 40
1.999999999999914
100
AcDbArc
 50
264.2608295227335
 51
185.7391704772664
  0
CIRCLE
  5
139E0
330
139DD
100
AcDbEntity
  8
0
100
AcDbCircle
 10
0.0
 20
0.0
 30
0.0
 40
1.64999999999992
  0
LINE
  5
139E1
330
139DD
100
AcDbEntity
  8
中心線
100
AcDbLine
 10
0.0
 20
-2.5
 30
0.0
 11
0.0
 21
2.5
 31
0.0
  0
ENDBLK
  5
139E3
330
139DD
100
AcDbEntity
  8
0
100
AcDbBlockEnd
  0
BLOCK
  5
13A56
330
13A41
100
AcDbEntity
  8
0
100
AcDbBlockBegin
  2
A$C2DAF0CD0
 70
     0
 10
0.0
 20
0.0
 30
0.0
  3
A$C2DAF0CD0
  1

  0
LINE
  5
13A42
330
13A41
100
AcDbEntity
  8
0
100
AcDbLine
 10
35.00000016637295
 20
40.09999991211026
 30
0.0
 11
1.000000166372956
 21
40.09999991211026
 31
0.0
  0
LINE
  5
13A43
330
13A41
100
AcDbEntity
  8
中心線
100
AcDbLine
 10
36.00000016637295
 20
20.39999991211027
 30
0.0
 11
0.0000001663729563
 21
20.39999991211027
 31
0.0
  0
LINE
  5
13A44
330
13A41
100
AcDbEntity
  8
0
100
AcDbLine
 10
2.000000166372956
 20
40.09999991211026
 30
0.0
 11
2.000000166372956
 21
0.6999999121103429
 31
0.0
  0
LINE
  5
13A45
330
13A41
100
AcDbEntity
  8
0
100
AcDbLine
 10
1.000000166373069
 20
40.09999991211026
 30
0.0
 11
1.000000166372956
 21
0.6999999121103429
 31
0.0
  0
LINE
  5
13A46
330
13A41
100
AcDbEntity
  8
0
100
AcDbLine
 10
8.950000166373115
 20
40.09999991211026
 30
0.0
 11
8.950000166373115
 21
0.6999999121103429
 31
0.0
  0
LINE
  5
13A47
330
13A41
100
AcDbEntity
  8
0
100
AcDbLine
 10
9.450000166373115
 20
40.09999991211026
 30
0.0
 11
9.450000166373115
 21
0.6999999121103429
 31
0.0
  0
LINE
  5
13A48
330
13A41
100
AcDbEntity
  8
0
100
AcDbLine
 10
15.05000016637325
 20
40.09999991211026
 30
0.0
 11
15.05000016637325
 21
0.6999999121103429
 31
0.0
  0
LINE
  5
13A49
330
13A41
100
AcDbEntity
  8
0
100
AcDbLine
 10
14.55000016637336
 20
40.09999991211026
 30
0.0
 11
14.55000016637325
 21
0.6999999121103429
 31
0.0
  0
LINE
  5
13A4A
330
13A41
100
AcDbEntity
  8
中心線
100
AcDbLine
 10
18.00000016637307
 20
-0.0000000878897595
 30
0.0
 11
18.00000016637307
 21
40.79999991211031
 31
0.0
  0
INSERT
  5
13A4B
330
13A41
100
AcDbEntity
  8
0
100
AcDbBlockReference
  2
A$C031D26F0
 10
5.000000166372956
 20
7.399999912110274
 30
0.0
  0
INSERT
  5
13A4C
330
13A41
100
AcDbEntity
  8
0
100
AcDbBlockReference
  2
A$C031D26F0
 10
5.000000166372956
 20
33.39999991211027
 30
0.0
  0
LINE
  5
13A4D
330
13A41
100
AcDbEntity
  8
0
100
AcDbLine
 10
20.95000016637289
 20
40.09999991211026
 30
0.0
 11
20.95000016637289
 21
0.6999999121103429
 31
0.0
  0
LINE
  5
13A4E
330
13A41
100
AcDbEntity
  8
0
100
AcDbLine
 10
21.450000166373
 20
40.09999991211026
 30
0.0
 11
21.45000016637288
 21
0.6999999121103429
 31
0.0
  0
LINE
  5
13A4F
330
13A41
100
AcDbEntity
  8
0
100
AcDbLine
 10
27.05000016637313
 20
40.09999991211026
 30
0.0
 11
27.05000016637302
 21
0.6999999121103429
 31
0.0
  0
LINE
  5
13A50
330
13A41
100
AcDbEntity
  8
0
100
AcDbLine
 10
26.55000016637313
 20
40.09999991211026
 30
0.0
 11
26.55000016637302
 21
0.6999999121103429
 31
0.0
  0
LINE
  5
13A51
330
13A41
100
AcDbEntity
  8
0
100
AcDbLine
 10
34.00000016637306
 20
40.09999991211026
 30
0.0
 11
34.00000016637295
 21
0.6999999121103429
 31
0.0
  0
LINE
  5
13A52
330
13A41
100
AcDbEntity
  8
0
100
AcDbLine
 10
35.00000016637295
 20
40.09999991211026
 30
0.0
 11
35.00000016637295
 21
0.6999999121103429
 31
0.0
  0
INSERT
  5
13A53
330
13A41
100
AcDbEntity
  8
0
100
AcDbBlockReference
  2
A$C031D26F0
 10
31.00000016637295
 20
7.399999912110274
 30
0.0
  0
INSERT
  5
13A54
330
13A41
100
AcDbEntity
  8
0
100
AcDbBlockReference
  2
A$C031D26F0
 10
31.00000016637295
 20
33.39999991211027
 30
0.0
  0
LINE
  5
13A55
330
13A41
100
AcDbEntity
  8
0
100
AcDbLine
 10
35.00000016637295
 20
0.699999912110286
 30
0.0
 11
1.000000166372956
 21
0.699999912110286
 31
0.0
  0
ENDBLK
  5
13A57
330
13A41
100
AcDbEntity
  8
0
100
AcDbBlockEnd
  0
BLOCK
  5
13A81
330
13A7F
100
AcDbEntity
  8
0
100
AcDbBlockBegin
  2
A$C78B866EC
 70
     0
 10
0.0
 20
0.0
 30
0.0
  3
A$C78B866EC
  1

  0
LINE
  5
13A80
330
13A7F
100
AcDbEntity
  8
0
100
AcDbLine
 10
0.0000001197737447
 20
15.00000007802666
 30
0.0
 11
0.0000001197737447
 21
0.0000000780266589
 31
0.0
  0
ENDBLK
  5
13A82
330
13A7F
100
AcDbEntity
  8
0
100
AcDbBlockEnd
  0
ENDSEC
  0
SECTION
  2
ENTITIES
  0
LINE
  5
1344B
330
1F
100
AcDbEntity
  8
中心線
 48
0.27
100
AcDbLine
 10
0.0
 20
25.86999999999997
 30
0.0
 11
0.0
 21
10.88706380469305
 31
0.0
  0
LINE
  5
1344C
330
1F
100
AcDbEntity
  8
0
 48
0.27
100
AcDbLine
 10
-17.0
 20
18.49999999999991
 30
0.0
 11
-17.0
 21
23.5
 31
0.0
  0
LINE
  5
1344D
330
1F
100
AcDbEntity
  8
虛線
 48
0.27
100
AcDbLine
 10
-11.00000000000011
 20
24.14999999999999
 30
0.0
 11
-11.00000000000011
 21
18.19999999999997
 31
0.0
  0
LINE
  5
1344E
330
1F
100
AcDbEntity
  8
虛線
 48
0.27
100
AcDbLine
 10
-15.00000000000011
 20
24.14999999999999
 30
0.0
 11
-15.00000000000011
 21
18.19999999999997
 31
0.0
  0
LINE
  5
1344F
330
1F
100
AcDbEntity
  8
虛線
 48
0.27
100
AcDbLine
 10
-14.75
 20
24.14999999999999
 30
0.0
 11
-14.75
 21
16.59999999999997
 31
0.0
  0
LINE
  5
13450
330
1F
100
AcDbEntity
  8
虛線
 48
0.27
100
AcDbLine
 10
-11.25
 20
24.14999999999999
 30
0.0
 11
-11.25
 21
16.59999999999997
 31
0.0
  0
LINE
  5
13451
330
1F
100
AcDbEntity
  8
虛線
 48
0.27
100
AcDbLine
 10
14.75
 20
24.14999999999999
 30
0.0
 11
14.75
 21
16.59999999999997
 31
0.0
  0
LINE
  5
13452
330
1F
100
AcDbEntity
  8
虛線
 48
0.27
100
AcDbLine
 10
11.24999999999988
 20
24.14999999999999
 30
0.0
 11
11.24999999999988
 21
16.59999999999997
 31
0.0
  0
LINE
  5
13453
330
1F
100
AcDbEntity
  8
虛線
 48
0.27
100
AcDbLine
 10
10.99999999999988
 20
24.14999999999999
 30
0.0
 11
10.99999999999988
 21
18.19999999999997
 31
0.0
  0
LINE
  5
13454
330
1F
100
AcDbEntity
  8
中心線
 48
0.27
100
AcDbLine
 10
13.0
 20
24.99999999999998
 30
0.0
 11
13.0
 21
15.23963702891812
 31
0.0
  0
LINE
  5
13455
330
1F
100
AcDbEntity
  8
中心線
 48
0.27
100
AcDbLine
 10
-13.0
 20
24.99999999999998
 30
0.0
 11
-13.0
 21
15.23963702891812
 31
0.0
  0
LINE
  5
13456
330
1F
100
AcDbEntity
  8
0
 48
0.27
100
AcDbLine
 10
17.0
 20
23.49999999999997
 30
0.0
 11
17.0
 21
13.14999999999998
 31
0.0
  0
LINE
  5
13457
330
1F
100
AcDbEntity
  8
虛線
 48
0.27
100
AcDbLine
 10
14.99999999999988
 20
24.14999999999999
 30
0.0
 11
14.99999999999988
 21
18.19999999999997
 31
0.0
  0
LINE
  5
13463
330
1F
100
AcDbEntity
  8
0
 48
0.27
100
AcDbLine
 10
-9.440000000000054
 20
9.753027668099871
 30
0.0
 11
-7.731266123953673
 21
11.46176481105798
 31
0.0
  0
LINE
  5
13464
330
1F
100
AcDbEntity
  8
0
 48
0.27
100
AcDbLine
 10
-7.738218759763299
 20
5.103988936286665
 30
0.0
 11
-9.440000000000054
 21
6.805771015400051
 31
0.0
  0
LINE
  5
13465
330
1F
100
AcDbEntity
  8
0
 48
0.27
100
AcDbLine
 10
-7.5
 20
7.609345046299988
 30
0.0
 11
-9.440000000000054
 21
6.805771015400051
 31
0.0
  0
LINE
  5
13466
330
1F
100
AcDbEntity
  8
0
 48
0.27
100
AcDbLine
 10
-9.643013411000268
 20
0.7999999999999652
 30
0.0
 11
-6.739804700000036
 21
3.703208711000169
 31
0.0
  0
LINE
  5
13467
330
1F
100
AcDbEntity
  8
0
 48
0.27
100
AcDbLine
 10
-6.899439100000058
 20
0.7999999999999936
 30
0.0
 11
-15.70000000000004
 21
0.799999999999951
 31
0.0
  0
LINE
  5
13468
330
1F
100
AcDbEntity
  8
0
 48
0.27
100
AcDbLine
 10
-7.5
 20
8.949454443499956
 30
0.0
 11
-9.440000000000054
 21
9.753027668100042
 31
0.0
  0
LINE
  5
13469
330
1F
100
AcDbEntity
  8
0
 48
0.27
100
AcDbLine
 10
-15.20000000000004
 20
19.49999999999998
 30
0.0
 11
15.20000000000004
 21
19.49999999999998
 31
0.0
  0
LINE
  5
1346B
330
1F
100
AcDbEntity
  8
0
 48
0.27
100
AcDbLine
 10
-16.20000000000004
 20
1.799999999999979
 30
0.0
 11
-16.20000000000004
 21
18.50000000000008
 31
0.0
  0
ARC
  5
1346C
330
1F
100
AcDbEntity
  8
0
 48
0.27
100
AcDbCircle
 10
-13.25
 20
10.99999999999998
 30
0.0
 40
3.0
100
AcDbArc
 50
270.0
 51
90.0
  0
LINE
  5
1346D
330
1F
100
AcDbEntity
  8
0
 48
0.27
100
AcDbLine
 10
-16.70000000000004
 20
1.799999999999993
 30
0.0
 11
-16.70000000000004
 21
18.19999999999997
 31
0.0
  0
LINE
  5
1346E
330
1F
100
AcDbEntity
  8
0
 48
0.27
100
AcDbLine
 10
-15.20000000000004
 20
0.7999999999999794
 30
0.0
 11
-16.20000000000004
 21
1.799999999999979
 31
0.0
  0
LINE
  5
1346F
330
1F
100
AcDbEntity
  8
0
 48
0.27
100
AcDbLine
 10
-16.70000000000004
 20
1.799999999999979
 30
0.0
 11
-15.70000000000004
 21
0.799999999999951
 31
0.0
  0
LINE
  5
13470
330
1F
100
AcDbEntity
  8
0
 48
0.27
100
AcDbLine
 10
-13.25
 20
8.000000000000095
 30
0.0
 11
-16.20000000000004
 21
8.000000000000095
 31
0.0
  0
LINE
  5
13471
330
1F
100
AcDbEntity
  8
0
 48
0.27
100
AcDbLine
 10
-9.440000000000054
 20
6.805771015400051
 30
0.0
 11
-9.440000000000054
 21
9.753027668099871
 31
0.0
  0
LINE
  5
13472
330
1F
100
AcDbEntity
  8
0
 48
0.27
100
AcDbLine
 10
-13.25
 20
14.00000000000009
 30
0.0
 11
-16.20000000000004
 21
14.00000000000009
 31
0.0
  0
LINE
  5
13473
330
1F
100
AcDbEntity
  8
虛線
 48
0.27
100
AcDbLine
 10
-14.75
 20
16.59999999999997
 30
0.0
 11
-13.0
 21
15.58963702891811
 31
0.0
  0
LINE
  5
13474
330
1F
100
AcDbEntity
  8
虛線
 48
0.27
100
AcDbLine
 10
-14.75
 20
16.59999999999997
 30
0.0
 11
-11.25
 21
16.59999999999997
 31
0.0
  0
LINE
  5
13475
330
1F
100
AcDbEntity
  8
虛線
 48
0.27
100
AcDbLine
 10
-11.25
 20
16.59999999999997
 30
0.0
 11
-13.0
 21
15.58963702891811
 31
0.0
  0
LINE
  5
13476
330
1F
100
AcDbEntity
  8
0
 48
0.27
100
AcDbLine
 10
-16.20000000000004
 20
18.50000000000008
 30
0.0
 11
-15.20000000000004
 21
19.49999999999998
 31
0.0
  0
LINE
  5
13477
330
1F
100
AcDbEntity
  8
0
 48
0.27
100
AcDbLine
 10
-17.0
 20
18.49999999999991
 30
0.0
 11
-16.70000000000004
 21
18.19999999999997
 31
0.0
  0
LINE
  5
13478
330
1F
100
AcDbEntity
  8
虛線
 48
0.27
100
AcDbLine
 10
-15.00000000000011
 20
18.19999999999997
 30
0.0
 11
-11.00000000000011
 21
18.19999999999997
 31
0.0
  0
LINE
  5
13479
330
1F
100
AcDbEntity
  8
0
 48
0.27
100
AcDbLine
 10
16.20000000000004
 20
18.50000000000008
 30
0.0
 11
16.20000000000004
 21
1.799999999999979
 31
0.0
  0
LINE
  5
1347A
330
1F
100
AcDbEntity
  8
0
 48
0.27
100
AcDbLine
 10
7.731266123953218
 20
11.46176481105798
 30
0.0
 11
9.43999999999994
 21
9.753027668100212
 31
0.0
  0
LINE
  5
1347B
330
1F
100
AcDbEntity
  8
0
 48
0.27
100
AcDbLine
 10
6.634490912500041
 20
9.814965185700071
 30
0.0
 11
7.042859542199948
 21
10.91980573350006
 31
0.0
  0
ARC
  5
1347E
330
1F
100
AcDbEntity
  8
0
 48
0.27
100
AcDbCircle
 10
13.24999999999988
 20
10.99999999999998
 30
0.0
 40
3.0
100
AcDbArc
 50
90.0
 51
270.0
  0
ARC
  5
1347F
330
1F
100
AcDbEntity
  8
0
 48
0.27
100
AcDbCircle
 10
6.821506203499893
 20
11.43420120340003
 30
0.0
 40
1.629999999999999
100
AcDbArc
 50
186.5882452203976
 51
263.4117571311989
  0
LINE
  5
13480
330
1F
100
AcDbEntity
  8
0
 48
0.27
100
AcDbLine
 10
7.042859542199948
 20
10.91980573350006
 30
0.0
 11
8.569999999999936
 21
9.392662356099986
 31
0.0
  0
LINE
  5
13481
330
1F
100
AcDbEntity
  8
0
 48
0.27
100
AcDbLine
 10
-6.634490912500041
 20
9.814965185700071
 30
0.0
 11
-7.042859542200062
 21
10.91980573350006
 31
0.0
  0
LINE
  5
13483
330
1F
100
AcDbEntity
  8
0
 48
0.27
100
AcDbLine
 10
-8.57000000000005
 20
9.392662356099986
 30
0.0
 11
-7.042859542200062
 21
10.91980573350006
 31
0.0
  0
ARC
  5
13484
330
1F
100
AcDbEntity
  8
0
 48
0.27
100
AcDbCircle
 10
-6.821506203400076
 20
11.43420120340003
 30
0.0
 40
1.629999999999999
100
AcDbArc
 50
276.588242868801
 51
353.4117547796018
  0
LINE
  5
13485
330
1F
100
AcDbEntity
  8
0
 48
0.27
100
AcDbLine
 10
16.69999999999981
 20
12.84999999999997
 30
0.0
 11
16.69999999999981
 21
1.799999999999979
 31
0.0
  0
LINE
  5
13486
330
1F
100
AcDbEntity
  8
0
 48
0.27
100
AcDbLine
 10
15.70000000000004
 20
0.799999999999951
 30
0.0
 11
6.899439099999881
 21
0.7999999999999936
 31
0.0
  0
LINE
  5
13487
330
1F
100
AcDbEntity
  8
0
 48
0.27
100
AcDbLine
 10
9.43999999999994
 20
6.805771015400051
 30
0.0
 11
7.738218759875053
 21
5.103988936306944
 31
0.0
  0
LINE
  5
13488
330
1F
100
AcDbEntity
  8
0
 48
0.27
100
AcDbLine
 10
7.5
 20
7.609345046299988
 30
0.0
 11
9.43999999999994
 21
6.805771015400051
 31
0.0
  0
LINE
  5
13489
330
1F
100
AcDbEntity
  8
0
 48
0.27
100
AcDbLine
 10
6.739804700000036
 20
3.703208711000169
 30
0.0
 11
9.643013410999996
 21
0.7999999999999794
 31
0.0
  0
LINE
  5
1348A
330
1F
100
AcDbEntity
  8
0
 48
0.27
100
AcDbLine
 10
7.5
 20
8.949454443499956
 30
0.0
 11
9.43999999999994
 21
9.753027668100155
 31
0.0
  0
LINE
  5
1348B
330
1F
100
AcDbEntity
  8
0
 48
0.27
100
AcDbLine
 10
5.869804700000031
 20
4.465940914200057
 30
0.0
 11
5.869804700000031
 21
3.3428429117
 31
0.0
  0
LINE
  5
1348C
330
1F
100
AcDbEntity
  8
0
 48
0.27
100
AcDbLine
 10
4.79980469999964
 20
4.909149261700004
 30
0.0
 11
6.739804700000036
 21
4.105574378200099
 31
0.0
  0
LINE
  5
1348D
330
1F
100
AcDbEntity
  8
0
 48
0.27
100
AcDbLine
 10
4.79980469999964
 20
2.899634400000064
 30
0.0
 11
4.79980469999964
 21
4.909149261700004
 31
0.0
  0
ARC
  5
1348E
330
1F
100
AcDbEntity
  8
0
 48
0.27
100
AcDbCircle
 10
6.494457708500931
 20
4.567334224584879
 30
0.0
 40
0.5
100
AcDbArc
 50
315.0000150107542
 51
354.0111902439174
  0
ARC
  5
1348F
330
1F
100
AcDbEntity
  8
0
 48
0.27
100
AcDbCircle
 10
-6.494457708974891
 20
4.567334229100406
 30
0.0
 40
0.5
100
AcDbArc
 50
185.9888100162231
 51
224.9999849781909
  0
LINE
  5
13490
330
1F
100
AcDbEntity
  8
0
 48
0.27
100
AcDbLine
 10
-4.799804699999981
 20
4.909149261700004
 30
0.0
 11
-6.739804700000036
 21
4.105574382200071
 31
0.0
  0
LINE
  5
13491
330
1F
100
AcDbEntity
  8
0
 48
0.27
100
AcDbLine
 10
-5.869804700000258
 20
3.3428429117
 30
0.0
 11
-5.869804700000258
 21
4.465940914200057
 31
0.0
  0
LINE
  5
13492
330
1F
100
AcDbEntity
  8
0
 48
0.27
100
AcDbLine
 10
-4.799804699999981
 20
4.909149261700004
 30
0.0
 11
-4.799804699999981
 21
2.899634400000064
 31
0.0
  0
LINE
  5
13493
330
1F
100
AcDbEntity
  8
0
 48
0.27
100
AcDbLine
 10
-4.799804699999981
 20
2.899634400000064
 30
0.0
 11
-6.899439100000058
 21
0.7999999999999936
 31
0.0
  0
LINE
  5
13494
330
1F
100
AcDbEntity
  8
0
 48
0.27
100
AcDbLine
 10
-8.412647611700016
 20
0.7999999999999794
 30
0.0
 11
-5.869804700000258
 21
3.3428429117
 31
0.0
  0
LINE
  5
13495
330
1F
100
AcDbEntity
  8
0
 48
0.27
100
AcDbLine
 10
-6.739804700000036
 20
4.105574382200071
 30
0.0
 11
-6.848011192262788
 21
4.213780931201863
 31
0.0
  0
LINE
  5
13496
330
1F
100
AcDbEntity
  8
0
 48
0.27
100
AcDbLine
 10
-6.739804700000036
 20
3.703208711000169
 30
0.0
 11
-6.739804700000036
 21
4.105574382200071
 31
0.0
  0
LINE
  5
13497
330
1F
100
AcDbEntity
  8
0
 48
0.27
100
AcDbLine
 10
-4.799804699999981
 20
2.899634400000064
 30
0.0
 11
-6.739804700000036
 21
3.703208711000169
 31
0.0
  0
LINE
  5
13498
330
1F
100
AcDbEntity
  8
0
 48
0.27
100
AcDbLine
 10
6.848011191720615
 20
4.213780926617953
 30
0.0
 11
6.739804700000036
 21
4.105574378200099
 31
0.0
  0
LINE
  5
13499
330
1F
100
AcDbEntity
  8
0
 48
0.27
100
AcDbLine
 10
6.739804700000036
 20
4.105574378200099
 30
0.0
 11
6.739804700000036
 21
3.703208711000169
 31
0.0
  0
LINE
  5
1349A
330
1F
100
AcDbEntity
  8
0
 48
0.27
100
AcDbLine
 10
4.79980469999964
 20
2.899634400000064
 30
0.0
 11
6.739804700000036
 21
3.703208711000169
 31
0.0
  0
LINE
  5
1349B
330
1F
100
AcDbEntity
  8
0
 48
0.27
100
AcDbLine
 10
8.412647611775977
 20
0.7999999999999794
 30
0.0
 11
5.869804700000031
 21
3.3428429117
 31
0.0
  0
LINE
  5
1349C
330
1F
100
AcDbEntity
  8
0
 48
0.27
100
AcDbLine
 10
6.899439099999881
 20
0.7999999999999936
 30
0.0
 11
4.79980469999964
 21
2.899634400000064
 31
0.0
  0
LINE
  5
1349F
330
1F
100
AcDbEntity
  8
0
 48
0.27
100
AcDbLine
 10
-6.310801169199976
 20
4.906937612899962
 30
0.0
 11
-6.962996147126887
 21
4.392772687018631
 31
0.0
  0
LINE
  5
134A0
330
1F
100
AcDbEntity
  8
0
 48
0.27
100
AcDbLine
 10
-6.648080611200157
 20
6.757425237500097
 30
0.0
 11
-7.051246334100142
 21
5.647382274499914
 31
0.0
  0
ARC
  5
134A1
330
1F
100
AcDbEntity
  8
0
 48
0.27
100
AcDbCircle
 10
-6.821506203400076
 20
5.136677396500072
 30
0.0
 40
0.5600000000000001
100
AcDbArc
 50
335.7794840316987
 51
114.2205550404995
  0
LINE
  5
134A2
330
1F
100
AcDbEntity
  8
0
 48
0.27
100
AcDbLine
 10
-7.5
 20
7.609345046299988
 30
0.0
 11
-6.648080611200157
 21
6.757425237500097
 31
0.0
  0
LINE
  5
134A3
330
1F
100
AcDbEntity
  8
0
 48
0.27
100
AcDbLine
 10
-7.499999999964416
 20
8.949454443470852
 30
0.0
 11
-7.499999999964416
 21
7.609345046300216
 31
0.0
  0
LINE
  5
134A4
330
1F
100
AcDbEntity
  8
0
 48
0.27
100
AcDbLine
 10
-7.5
 20
8.949454443499956
 30
0.0
 11
-7.5
 21
7.609345046299988
 31
0.0
  0
LINE
  5
134A5
330
1F
100
AcDbEntity
  8
0
 48
0.27
100
AcDbLine
 10
-8.57000000000005
 20
7.166136689100067
 30
0.0
 11
-8.57000000000005
 21
9.392662356099986
 31
0.0
  0
LINE
  5
134A6
330
1F
100
AcDbEntity
  8
0
 48
0.27
100
AcDbLine
 10
-7.051246334100142
 20
5.647382274499914
 30
0.0
 11
-7.559669704201951
 21
4.989169042150177
 31
0.0
  0
LINE
  5
134A7
330
1F
100
AcDbEntity
  8
0
 48
0.27
100
AcDbLine
 10
-7.051246334100142
 20
5.647382274499914
 30
0.0
 11
-8.57000000000005
 21
7.166136689100067
 31
0.0
  0
ARC
  5
134A8
330
1F
100
AcDbEntity
  8
0
 48
0.27
100
AcDbCircle
 10
-7.48900000000026
 20
4.463000000000061
 30
0.0
 40
0.5
100
AcDbArc
 50
5.988810016223114
 51
84.01116181987163
  0
ARC
  5
134A9
330
1F
100
AcDbEntity
  8
0
 48
0.27
100
AcDbCircle
 10
-7.384665282029914
 20
5.457542239739591
 30
0.0
 40
0.5
100
AcDbArc
 50
224.999985878311
 51
264.0111618198716
  0
LINE
  5
134AB
330
1F
100
AcDbEntity
  8
0
 48
0.27
100
AcDbLine
 10
-5.200758379900094
 20
5.310103151699973
 30
0.0
 11
-6.31080116999999
 21
4.906937613700161
 31
0.0
  0
LINE
  5
134AC
330
1F
100
AcDbEntity
  8
0
 48
0.27
100
AcDbLine
 10
-5.200758379900094
 20
5.310103151699973
 30
0.0
 11
-4.799804699999981
 21
4.909149261700004
 31
0.0
  0
LINE
  5
134AD
330
1F
100
AcDbEntity
  8
0
 48
0.27
100
AcDbLine
 10
-5.869804701100179
 20
4.465940913700006
 30
0.0
 11
-6.31080116999999
 21
4.906937613700161
 31
0.0
  0
ARC
  5
134AE
330
1F
100
AcDbEntity
  8
0
 48
0.27
100
AcDbCircle
 10
-6.821506203400076
 20
5.136677396500072
 30
0.0
 40
1.629999999999999
100
AcDbArc
 50
6.107611780399468
 51
83.89239397910079
  0
LINE
  5
134AF
330
1F
100
AcDbEntity
  8
0
 48
0.27
100
AcDbLine
 10
-6.634490912500041
 20
9.814965185700071
 30
0.0
 11
-7.5
 21
8.949454443499956
 31
0.0
  0
LINE
  5
134B0
330
1F
100
AcDbEntity
  8
0
 48
0.27
100
AcDbLine
 10
7.500000000035356
 20
8.949454443470852
 30
0.0
 11
7.500000000035356
 21
7.609345046300216
 31
0.0
  0
LINE
  5
134B1
330
1F
100
AcDbEntity
  8
0
 48
0.27
100
AcDbLine
 10
7.5
 20
7.609345046299988
 30
0.0
 11
7.5
 21
8.949454443499956
 31
0.0
  0
LINE
  5
134B2
330
1F
100
AcDbEntity
  8
0
 48
0.27
100
AcDbLine
 10
8.569999999999936
 20
9.392662356099986
 30
0.0
 11
8.569999999999936
 21
7.166136689100067
 31
0.0
  0
ARC
  5
134B3
330
1F
100
AcDbEntity
  8
0
 48
0.27
100
AcDbCircle
 10
7.384665282132118
 20
5.457542239750278
 30
0.0
 40
0.5
100
AcDbArc
 50
275.9888381742206
 51
315.0000141232452
  0
LINE
  5
134B4
330
1F
100
AcDbEntity
  8
0
 48
0.27
100
AcDbLine
 10
6.648080611199588
 20
6.757425237500097
 30
0.0
 11
7.051246334199845
 21
5.647382274499914
 31
0.0
  0
LINE
  5
134B5
330
1F
100
AcDbEntity
  8
0
 48
0.27
100
AcDbLine
 10
6.310801168500006
 20
4.906937615300076
 30
0.0
 11
6.962996147310832
 21
4.392772684269498
 31
0.0
  0
ARC
  5
134B6
330
1F
100
AcDbEntity
  8
0
 48
0.27
100
AcDbCircle
 10
6.821506203499893
 20
5.136677396500072
 30
0.0
 40
0.5600000000000001
100
AcDbArc
 50
65.77944495950046
 51
204.2205159683009
  0
LINE
  5
134B8
330
1F
100
AcDbEntity
  8
0
 48
0.27
100
AcDbLine
 10
6.310801167699878
 20
4.906937614500005
 30
0.0
 11
5.869804698900111
 21
4.465940914600064
 31
0.0
  0
LINE
  5
134B9
330
1F
100
AcDbEntity
  8
0
 48
0.27
100
AcDbLine
 10
4.79980469999964
 20
4.909149261700004
 30
0.0
 11
5.200758379900094
 21
5.310103151699973
 31
0.0
  0
LINE
  5
134BA
330
1F
100
AcDbEntity
  8
0
 48
0.27
100
AcDbLine
 10
5.200758379900094
 20
5.310103151699973
 30
0.0
 11
6.310801167699878
 21
4.906937614500005
 31
0.0
  0
ARC
  5
134BB
330
1F
100
AcDbEntity
  8
0
 48
0.27
100
AcDbCircle
 10
6.821506203499893
 20
5.136677396500072
 30
0.0
 40
1.629999999999999
100
AcDbArc
 50
96.10760602089921
 51
173.8923882196005
  0
LINE
  5
134BC
330
1F
100
AcDbEntity
  8
0
 48
0.27
100
AcDbLine
 10
6.648080611199588
 20
6.757425237500097
 30
0.0
 11
7.5
 21
7.609345046299988
 31
0.0
  0
LINE
  5
134BD
330
1F
100
AcDbEntity
  8
0
 48
0.27
100
AcDbLine
 10
7.051246334199845
 20
5.647382274499914
 30
0.0
 11
7.55966970429597
 21
4.98916904215768
 31
0.0
  0
ARC
  5
134BE
330
1F
100
AcDbEntity
  8
0
 48
0.27
100
AcDbCircle
 10
7.489000000000032
 20
4.463000000000061
 30
0.0
 40
0.5
100
AcDbArc
 50
95.98883817421414
 51
174.0111902439174
  0
LINE
  5
134BF
330
1F
100
AcDbEntity
  8
0
 48
0.27
100
AcDbLine
 10
8.569999999999936
 20
7.166136689100067
 30
0.0
 11
7.051246334199845
 21
5.647382274499914
 31
0.0
  0
LINE
  5
134C0
330
1F
100
AcDbEntity
  8
0
 48
0.27
100
AcDbLine
 10
7.5
 20
8.949454443499956
 30
0.0
 11
6.634490912500041
 21
9.814965185700071
 31
0.0
  0
LINE
  5
134C1
330
1F
100
AcDbEntity
  8
0
 48
0.27
100
AcDbLine
 10
16.20000000000004
 20
1.799999999999979
 30
0.0
 11
15.20000000000004
 21
0.7999999999999794
 31
0.0
  0
LINE
  5
134C2
330
1F
100
AcDbEntity
  8
0
 48
0.27
100
AcDbLine
 10
16.69999999999981
 20
1.799999999999979
 30
0.0
 11
15.70000000000004
 21
0.799999999999951
 31
0.0
  0
LINE
  5
134C3
330
1F
100
AcDbEntity
  8
0
 48
0.27
100
AcDbLine
 10
9.43999999999994
 20
9.753027668100212
 30
0.0
 11
9.43999999999994
 21
6.805771015400051
 31
0.0
  0
LINE
  5
134C4
330
1F
100
AcDbEntity
  8
0
 48
0.27
100
AcDbLine
 10
13.24999999999988
 20
8.000000000000095
 30
0.0
 11
16.20000000000004
 21
8.000000000000095
 31
0.0
  0
ARC
  5
134C5
330
1F
100
AcDbEntity
  8
0
 48
0.27
100
AcDbCircle
 10
0.0
 20
16.00000000000009
 30
0.0
 40
3.0
100
AcDbArc
 50
301.4239064858002
 51
238.5760935141998
  0
LINE
  5
134C7
330
1F
100
AcDbEntity
  8
0
 48
0.27
100
AcDbLine
 10
4.949456226317579
 20
11.49999999996445
 30
0.0
 11
-4.949456226246638
 21
11.49999999996445
 31
0.0
  0
LINE
  5
134C8
330
1F
100
AcDbEntity
  8
中心線
 48
0.27
100
AcDbLine
 10
-3.394263050102495
 20
16.00000000000009
 30
0.0
 11
3.39426305010204
 21
16.00000000000009
 31
0.0
  0
LINE
  5
134C9
330
1F
100
AcDbEntity
  8
0
 48
0.27
100
AcDbLine
 10
4.949456226299844
 20
11.49999999999998
 30
0.0
 11
-4.949456226300185
 21
11.49999999999998
 31
0.0
  0
LINE
  5
134CA
330
1F
100
AcDbEntity
  8
0
 48
0.27
100
AcDbLine
 10
-5.392664969599877
 20
12.57000000000003
 30
0.0
 11
5.392664969599877
 21
12.57000000000003
 31
0.0
  0
ARC
  5
134CB
330
1F
100
AcDbEntity
  8
0
 48
0.27
100
AcDbCircle
 10
0.0
 20
16.00000000000009
 30
0.0
 40
3.0
100
AcDbArc
 50
238.5760935141998
 51
301.4239064858002
  0
LINE
  5
134CC
330
1F
100
AcDbEntity
  8
0
 48
0.27
100
AcDbLine
 10
-6.307110504199954
 20
11.65555407670005
 30
0.0
 11
-6.962763803291977
 21
12.1679004682068
 31
0.0
  0
LINE
  5
134CD
330
1F
100
AcDbEntity
  8
0
 48
0.27
100
AcDbLine
 10
-6.848765042956188
 20
12.34426776937827
 30
0.0
 11
-5.753033622200064
 21
13.43999999999998
 31
0.0
  0
ARC
  5
134CE
330
1F
100
AcDbEntity
  8
0
 48
0.27
100
AcDbCircle
 10
-6.821506203400076
 20
11.43420120340003
 30
0.0
 40
0.5600000000000001
100
AcDbArc
 50
246.7169474446986
 51
23.28297609000022
  0
LINE
  5
134CF
330
1F
100
AcDbEntity
  8
0
 48
0.27
100
AcDbLine
 10
-7.042859542200062
 20
10.91980573350006
 30
0.0
 11
-7.554920606591963
 21
11.57575560652518
 31
0.0
  0
ARC
  5
134D0
330
1F
100
AcDbEntity
  8
0
 48
0.27
100
AcDbCircle
 10
-7.48900000000026
 20
12.10200000000005
 30
0.0
 40
0.5
100
AcDbArc
 50
276.3895456483096
 51
353.6105762354624
  0
ARC
  5
134D1
330
1F
100
AcDbEntity
  8
0
 48
0.27
100
AcDbCircle
 10
-7.377712395383355
 20
11.1082117584422
 30
0.0
 40
0.5
100
AcDbArc
 50
96.38954564830962
 51
135.0000547715693
  0
ARC
  5
134D2
330
1F
100
AcDbEntity
  8
0
 48
0.27
100
AcDbCircle
 10
-6.4952115217053
 20
11.99071450944226
 30
0.0
 40
0.5
100
AcDbArc
 50
135.0000211739304
 51
173.6105762354623
  0
LINE
  5
134D4
330
1F
100
AcDbEntity
  8
0
 48
0.27
100
AcDbLine
 10
-4.949456226300185
 20
11.49999999999998
 30
0.0
 11
-5.753033622200064
 21
13.43999999999998
 31
0.0
  0
LINE
  5
134D5
330
1F
100
AcDbEntity
  8
0
 48
0.27
100
AcDbLine
 10
-6.307110647799959
 20
11.65555393319996
 30
0.0
 11
-5.392665053700056
 21
12.57000020299998
 31
0.0
  0
LINE
  5
134D6
330
1F
100
AcDbEntity
  8
0
 48
0.27
100
AcDbLine
 10
-5.202270193400067
 20
11.24718584600007
 30
0.0
 11
-6.307110647799959
 21
11.65555393319996
 31
0.0
  0
LINE
  5
134D7
330
1F
100
AcDbEntity
  8
0
 48
0.27
100
AcDbLine
 10
-4.949456226300185
 20
11.49999999999998
 30
0.0
 11
-5.202270193400067
 21
11.24718584600007
 31
0.0
  0
LINE
  5
134D8
330
1F
100
AcDbEntity
  8
0
 48
0.27
100
AcDbLine
 10
-5.753033622200064
 20
13.43999999999998
 30
0.0
 11
-1.564097183681496
 21
13.43999999999998
 31
0.0
  0
ARC
  5
134D9
330
1F
100
AcDbEntity
  8
0
 48
0.27
100
AcDbCircle
 10
7.377712395383014
 20
11.1082117584422
 30
0.0
 40
0.5
100
AcDbArc
 50
44.99994522843985
 51
83.61045435169037
  0
LINE
  5
134DA
330
1F
100
AcDbEntity
  8
0
 48
0.27
100
AcDbLine
 10
1.564097183681383
 20
13.43999999999998
 30
0.0
 11
5.753034352199961
 21
13.43999999999998
 31
0.0
  0
LINE
  5
134DB
330
1F
100
AcDbEntity
  8
0
 48
0.27
100
AcDbLine
 10
5.753034352199961
 20
13.43999999999998
 30
0.0
 11
6.848764950901909
 21
12.3442685914325
 31
0.0
  0
LINE
  5
134DC
330
1F
100
AcDbEntity
  8
0
 48
0.27
100
AcDbLine
 10
6.307110372099941
 20
11.65555363459996
 30
0.0
 11
6.962763832630002
 21
12.1679009699342
 31
0.0
  0
ARC
  5
134DD
330
1F
100
AcDbEntity
  8
0
 48
0.27
100
AcDbCircle
 10
6.821506203499893
 20
11.43420120340003
 30
0.0
 40
0.5600000000000001
100
AcDbArc
 50
156.7170239099993
 51
293.2830525552942
  0
LINE
  5
134DF
330
1F
100
AcDbEntity
  8
0
 48
0.27
100
AcDbLine
 10
5.392664885499925
 20
12.56999979689997
 30
0.0
 11
6.307110228499936
 21
11.65555377819991
 31
0.0
  0
LINE
  5
134E0
330
1F
100
AcDbEntity
  8
0
 48
0.27
100
AcDbLine
 10
4.949456226299844
 20
11.49999999999998
 30
0.0
 11
5.753034352199961
 21
13.43999999999998
 31
0.0
  0
LINE
  5
134E1
330
1F
100
AcDbEntity
  8
0
 48
0.27
100
AcDbLine
 10
5.202270193499998
 20
11.24718584600007
 30
0.0
 11
4.949456226299844
 21
11.49999999999998
 31
0.0
  0
LINE
  5
134E2
330
1F
100
AcDbEntity
  8
0
 48
0.27
100
AcDbLine
 10
5.202270193499998
 20
11.24718584600007
 30
0.0
 11
6.307110228499936
 21
11.65555377819991
 31
0.0
  0
ARC
  5
134E3
330
1F
100
AcDbEntity
  8
0
 48
0.27
100
AcDbCircle
 10
6.495211429651021
 20
11.99071533149672
 30
0.0
 40
0.5
100
AcDbArc
 50
6.389376369905712
 51
44.99997882606002
  0
LINE
  5
134E4
330
1F
100
AcDbEntity
  8
0
 48
0.27
100
AcDbLine
 10
7.042859542199948
 20
10.91980573350006
 30
0.0
 11
7.554920606591622
 21
11.57575560652518
 31
0.0
  0
ARC
  5
134E5
330
1F
100
AcDbEntity
  8
0
 48
0.27
100
AcDbCircle
 10
7.489000000000032
 20
12.10200000000005
 30
0.0
 40
0.5
100
AcDbArc
 50
186.3893763699057
 51
263.6104543516903
  0
LINE
  5
134E6
330
1F
100
AcDbEntity
  8
0
 48
0.27
100
AcDbLine
 10
13.24999999999988
 20
14.00000000000009
 30
0.0
 11
16.20000000000004
 21
14.00000000000009
 31
0.0
  0
LINE
  5
134E7
330
1F
100
AcDbEntity
  8
虛線
 48
0.27
100
AcDbLine
 10
14.75
 20
16.59999999999997
 30
0.0
 11
13.0
 21
15.58963702891811
 31
0.0
  0
LINE
  5
134E8
330
1F
100
AcDbEntity
  8
虛線
 48
0.27
100
AcDbLine
 10
11.24999999999988
 20
16.59999999999997
 30
0.0
 11
14.75
 21
16.59999999999997
 31
0.0
  0
LINE
  5
134E9
330
1F
100
AcDbEntity
  8
虛線
 48
0.27
100
AcDbLine
 10
11.24999999999988
 20
16.59999999999997
 30
0.0
 11
13.0
 21
15.58963702891811
 31
0.0
  0
LINE
  5
134EA
330
1F
100
AcDbEntity
  8
0
 48
0.27
100
AcDbLine
 10
17.0
 20
13.14999999999998
 30
0.0
 11
16.69999999999981
 21
12.84999999999997
 31
0.0
  0
LINE
  5
134EB
330
1F
100
AcDbEntity
  8
0
 48
0.27
100
AcDbLine
 10
15.20000000000004
 20
19.49999999999998
 30
0.0
 11
16.20000000000004
 21
18.50000000000008
 31
0.0
  0
LINE
  5
134EC
330
1F
100
AcDbEntity
  8
虛線
 48
0.27
100
AcDbLine
 10
10.99999999999988
 20
18.19999999999997
 30
0.0
 11
14.99999999999988
 21
18.19999999999997
 31
0.0
  0
LINE
  5
134ED
330
1F
100
AcDbEntity
  8
0
 48
0.27
100
AcDbLine
 10
-16.00000000000011
 20
24.49999999999995
 30
0.0
 11
-9.0
 21
24.49999999999998
 31
0.0
  0
LINE
  5
134EE
330
1F
100
AcDbEntity
  8
0
 48
0.27
100
AcDbLine
 10
-16.00000000000011
 20
24.49999999999995
 30
0.0
 11
-17.0
 21
23.5
 31
0.0
  0
LINE
  5
134EF
330
1F
100
AcDbEntity
  8
虛線
 48
0.27
100
AcDbLine
 10
-15.35000000000013
 20
24.49999999999998
 30
0.0
 11
-15.00000000000011
 21
24.14999999999999
 31
0.0
  0
LINE
  5
134F0
330
1F
100
AcDbEntity
  8
虛線
 48
0.27
100
AcDbLine
 10
-11.00000000000011
 20
24.14999999999999
 30
0.0
 11
-10.65000000000031
 21
24.49999999999998
 31
0.0
  0
LINE
  5
134F1
330
1F
100
AcDbEntity
  8
虛線
 48
0.27
100
AcDbLine
 10
-15.00000000000011
 20
24.14999999999999
 30
0.0
 11
-11.00000000000011
 21
24.14999999999999
 31
0.0
  0
LINE
  5
134F2
330
1F
100
AcDbEntity
  8
0
 48
0.27
100
AcDbLine
 10
8.999999999999886
 20
24.49999999999995
 30
0.0
 11
16.0
 21
24.49999999999998
 31
0.0
  0
LINE
  5
134F3
330
1F
100
AcDbEntity
  8
0
 48
0.27
100
AcDbLine
 10
-3.000000000000113
 20
24.49999999999995
 30
0.0
 11
2.999999999999886
 21
24.49999999999998
 31
0.0
  0
LINE
  5
134F4
330
1F
100
AcDbEntity
  8
0
 48
0.27
100
AcDbLine
 10
-8.5
 20
23.99999999999998
 30
0.0
 11
-3.500000000000113
 21
23.99999999999998
 31
0.0
  0
LINE
  5
134F5
330
1F
100
AcDbEntity
  8
0
 48
0.27
100
AcDbLine
 10
-3.000000000000113
 20
24.49999999999995
 30
0.0
 11
-3.500000000000113
 21
23.99999999999998
 31
0.0
  0
LINE
  5
134F6
330
1F
100
AcDbEntity
  8
0
 48
0.27
100
AcDbLine
 10
-8.5
 20
23.99999999999998
 30
0.0
 11
-9.0
 21
24.49999999999998
 31
0.0
  0
LINE
  5
134F7
330
1F
100
AcDbEntity
  8
0
 48
0.27
100
AcDbLine
 10
2.999999999999886
 20
24.49999999999998
 30
0.0
 11
3.5
 21
23.99999999999995
 31
0.0
  0
LINE
  5
134F8
330
1F
100
AcDbEntity
  8
0
 48
0.27
100
AcDbLine
 10
8.499999999999658
 20
23.99999999999991
 30
0.0
 11
8.999999999999886
 21
24.49999999999995
 31
0.0
  0
LINE
  5
134F9
330
1F
100
AcDbEntity
  8
0
 48
0.27
100
AcDbLine
 10
8.5
 20
23.99999999999995
 30
0.0
 11
3.5
 21
23.99999999999998
 31
0.0
  0
LINE
  5
134FA
330
1F
100
AcDbEntity
  8
虛線
 48
0.27
100
AcDbLine
 10
10.64999999999986
 20
24.49999999999998
 30
0.0
 11
10.99999999999988
 21
24.14999999999999
 31
0.0
  0
LINE
  5
134FB
330
1F
100
AcDbEntity
  8
0
 48
0.27
100
AcDbLine
 10
16.0
 20
24.49999999999998
 30
0.0
 11
17.0
 21
23.49999999999997
 31
0.0
  0
LINE
  5
134FC
330
1F
100
AcDbEntity
  8
虛線
 48
0.27
100
AcDbLine
 10
14.99999999999988
 20
24.14999999999999
 30
0.0
 11
15.34999999999979
 21
24.49999999999998
 31
0.0
  0
LINE
  5
134FD
330
1F
100
AcDbEntity
  8
虛線
 48
0.27
100
AcDbLine
 10
10.99999999999988
 20
24.14999999999999
 30
0.0
 11
14.99999999999988
 21
24.14999999999999
 31
0.0
  0
LINE
  5
13525
330
1F
100
AcDbEntity
  8
指線
 48
0.27
100
AcDbLine
 10
12.69394366859127
 20
11.54826701233439
 30
0.0
 11
10.55966317351138
 21
11.5486496415708
 31
0.0
  0
LINE
  5
13526
330
1F
100
AcDbEntity
  8
指線
 48
0.27
100
AcDbLine
 10
12.69377414930825
 20
10.45234903520029
 30
0.0
 11
10.55949365422837
 21
10.45273166443668
 31
0.0
  0
LINE
  5
13547
330
1F
100
AcDbEntity
  8
指線
 48
0.27
100
AcDbLine
 10
13.78985944653775
 20
11.54809738862878
 30
0.0
 11
15.92853208790077
 21
11.54781865816383
 31
0.0
  0
LINE
  5
13548
330
1F
100
AcDbEntity
  8
指線
 48
0.27
100
AcDbLine
 10
13.78968992725499
 20
10.45217941149493
 30
0.0
 11
15.928362568618
 21
10.45190068102972
 31
0.0
  0
LINE
  5
13555
330
1F
100
AcDbEntity
  8
指線
 48
0.27
100
AcDbLine
 10
12.69377414930825
 20
10.45234903520029
 30
0.0
 11
12.69361917228905
 21
9.450445957364234
 31
0.0
  0
LINE
  5
13562
330
1F
100
AcDbEntity
  8
指線
 48
0.27
100
AcDbLine
 10
13.78968992725499
 20
10.45217941149493
 30
0.0
 11
13.78953495045481
 21
9.450276333663619
 31
0.0
  0
LINE
  5
13590
330
1F
100
AcDbEntity
  8
指線
 48
0.27
100
AcDbLine
 10
12.69409864539119
 20
12.55017009016546
 30
0.0
 11
12.69394366859127
 21
11.54826701233439
 31
0.0
  0
LINE
  5
13591
330
1F
100
AcDbEntity
  8
指線
 48
0.27
100
AcDbLine
 10
13.79001442355696
 20
12.5500004664651
 30
0.0
 11
13.78985944653775
 21
11.54809738862878
 31
0.0
  0
CIRCLE
  5
13693
330
1F
100
AcDbEntity
  8
指線
 48
0.27
100
AcDbCircle
 10
13.24999999999988
 20
10.99999999999998
 30
0.0
 40
2.733551208880355
  0
ARC
  5
13694
330
1F
100
AcDbEntity
  8
指線
 48
0.27
100
AcDbCircle
 10
13.24999999999988
 20
10.99999999999998
 30
0.0
 40
1.640957465861142
100
AcDbArc
 50
109.8017739016578
 51
160.4747460815319
  0
ARC
  5
13695
330
1F
100
AcDbEntity
  8
指線
 48
0.27
100
AcDbCircle
 10
13.24999999999988
 20
10.99999999999998
 30
0.0
 40
1.640957465861142
100
AcDbArc
 50
19.50753063170162
 51
70.78675677481014
  0
ARC
  5
13696
330
1F
100
AcDbEntity
  8
指線
 48
0.27
100
AcDbCircle
 10
13.24999999999988
 20
10.99999999999998
 30
0.0
 40
1.640957465861142
100
AcDbArc
 50
289.1955179156179
 51
340.4929998358231
  0
ARC
  5
13697
330
1F
100
AcDbEntity
  8
指線
 48
0.27
100
AcDbCircle
 10
13.24999999999988
 20
10.99999999999998
 30
0.0
 40
1.640957465861142
100
AcDbArc
 50
199.4892768756599
 51
250.1805007887792
  0
CIRCLE
  5
13698
330
1F
100
AcDbEntity
  8
指線
 48
0.27
100
AcDbCircle
 10
-13.25
 20
10.99999999999998
 30
0.0
 40
2.733551208880355
  0
ARC
  5
13699
330
1F
100
AcDbEntity
  8
指線
 48
0.27
100
AcDbCircle
 10
-13.25
 20
10.99999999999998
 30
0.0
 40
1.640957465861142
100
AcDbArc
 50
199.4892768756599
 51
250.1805007887792
  0
ARC
  5
1369A
330
1F
100
AcDbEntity
  8
指線
 48
0.27
100
AcDbCircle
 10
-13.25
 20
10.99999999999998
 30
0.0
 40
1.640957465861142
100
AcDbArc
 50
289.1955179156179
 51
340.4929998358231
  0
LINE
  5
1369B
330
1F
100
AcDbEntity
  8
指線
 48
0.27
100
AcDbLine
 10
-12.71031007274489
 20
10.45217941149493
 30
0.0
 11
-12.71046504954507
 21
9.450276333663619
 31
0.0
  0
LINE
  5
1369C
330
1F
100
AcDbEntity
  8
指線
 48
0.27
100
AcDbLine
 10
-13.80622585069163
 20
10.45234903520029
 30
0.0
 11
-13.80638082771084
 21
9.450445957364234
 31
0.0
  0
ARC
  5
1369D
330
1F
100
AcDbEntity
  8
指線
 48
0.27
100
AcDbCircle
 10
-13.25
 20
10.99999999999998
 30
0.0
 40
1.640957465861142
100
AcDbArc
 50
109.8017739016578
 51
160.4747460815319
  0
LINE
  5
1369E
330
1F
100
AcDbEntity
  8
指線
 48
0.27
100
AcDbLine
 10
-13.80590135460869
 20
12.55017009016546
 30
0.0
 11
-13.80605633140861
 21
11.54826701233439
 31
0.0
  0
LINE
  5
1369F
330
1F
100
AcDbEntity
  8
指線
 48
0.27
100
AcDbLine
 10
-13.80622585069163
 20
10.45234903520029
 30
0.0
 11
-15.94050634577151
 21
10.45273166443668
 31
0.0
  0
LINE
  5
136A0
330
1F
100
AcDbEntity
  8
指線
 48
0.27
100
AcDbLine
 10
-13.80605633140861
 20
11.54826701233439
 30
0.0
 11
-15.94033682648849
 21
11.5486496415708
 31
0.0
  0
ARC
  5
136A1
330
1F
100
AcDbEntity
  8
指線
 48
0.27
100
AcDbCircle
 10
-13.25
 20
10.99999999999998
 30
0.0
 40
1.640957465861142
100
AcDbArc
 50
19.50753063170162
 51
70.78675677481014
  0
LINE
  5
136A2
330
1F
100
AcDbEntity
  8
指線
 48
0.27
100
AcDbLine
 10
-12.70998557644291
 20
12.5500004664651
 30
0.0
 11
-12.71014055346212
 21
11.54809738862878
 31
0.0
  0
LINE
  5
136A3
330
1F
100
AcDbEntity
  8
指線
 48
0.27
100
AcDbLine
 10
-12.71031007274489
 20
10.45217941149493
 30
0.0
 11
-10.57163743138188
 21
10.45190068102972
 31
0.0
  0
LINE
  5
136A4
330
1F
100
AcDbEntity
  8
指線
 48
0.27
100
AcDbLine
 10
-12.71014055346212
 20
11.54809738862878
 30
0.0
 11
-10.57146791209911
 21
11.54781865816383
 31
0.0
  0
LINE
  5
1370C
330
1F
100
AcDbEntity
  8
0
 48
0.27
100
AcDbLine
 10
7.500000000035356
 20
0.1994390999644615
 30
0.0
 11
7.500000000035356
 21
-2.800048830035581
 31
0.0
  0
LINE
  5
1370D
330
1F
100
AcDbEntity
  8
虛線
 48
0.27
100
AcDbLine
 10
2.250308041280959
 20
5.895600375885447
 30
0.0
 11
2.250308041280959
 21
-3.000000000035544
 31
0.0
  0
LINE
  5
1370E
330
1F
100
AcDbEntity
  8
0
 48
0.27
100
AcDbLine
 10
-7.499999999964416
 20
0.1994391000356295
 30
0.0
 11
-7.499999999964416
 21
-2.800048830035581
 31
0.0
  0
LINE
  5
1370F
330
1F
100
AcDbEntity
  8
虛線
 48
0.27
100
AcDbLine
 10
-2.24969195871904
 20
5.895600375885447
 30
0.0
 11
-2.24969195871904
 21
-3.000000000035544
 31
0.0
  0
LINE
  5
13710
330
1F
100
AcDbEntity
  8
中心線
 48
0.27
100
AcDbLine
 10
0.0000000000353566
 20
12.49999999996445
 30
0.0
 11
0.0000000000353566
 21
-4.688378900035576
 31
0.0
  0
LINE
  5
13711
330
1F
100
AcDbEntity
  8
虛線
 48
0.27
100
AcDbLine
 10
2.250308041280959
 20
-3.000000000035544
 30
0.0
 11
-2.24969195871904
 21
-3.000000000035544
 31
0.0
  0
LINE
  5
13712
330
1F
100
AcDbEntity
  8
0
 48
0.27
100
AcDbLine
 10
6.799858100035294
 20
-3.500000000035544
 30
0.0
 11
-6.800048799964656
 21
-3.500000000035544
 31
0.0
  0
LINE
  5
13713
330
1F
100
AcDbEntity
  8
0
 48
0.27
100
AcDbLine
 10
-7.500340899964726
 20
-2.800324740035552
 30
0.0
 11
-6.800333499964608
 21
-3.500331763275557
 31
0.0
  0
LINE
  5
13714
330
1F
100
AcDbEntity
  8
虛線
 48
0.27
100
AcDbLine
 10
-2.24969195871904
 20
-3.000000000035544
 30
0.0
 11
-2.749691958719381
 21
-3.500000000035544
 31
0.0
  0
LINE
  5
13715
330
1F
100
AcDbEntity
  8
虛線
 48
0.27
100
AcDbLine
 10
2.250308041280959
 20
-3.000000000035544
 30
0.0
 11
2.750308041280618
 21
-3.500000000035544
 31
0.0
  0
LINE
  5
13716
330
1F
100
AcDbEntity
  8
0
 48
0.27
100
AcDbLine
 10
7.499729600035266
 20
-2.800129180035543
 30
0.0
 11
6.7997007000356
 21
-3.50015778089558
 31
0.0
  0
LINE
  5
13717
330
1F
100
AcDbEntity
  8
虛線
 48
0.27
100
AcDbLine
 10
3.750308041280959
 20
11.29999999996439
 30
0.0
 11
3.750308041280959
 21
6.195600375885401
 31
0.0
  0
ARC
  5
13718
330
1F
100
AcDbEntity
  8
0
 48
0.27
100
AcDbCircle
 10
6.821506203499893
 20
11.43420120340003
 30
0.0
 40
1.629999999999999
100
AcDbArc
 50
186.5882452203976
 51
263.4117571311989
  0
LINE
  5
13719
330
1F
100
AcDbEntity
  8
虛線
 48
0.27
100
AcDbLine
 10
-3.74969195871904
 20
11.29999999996439
 30
0.0
 11
-3.74969195871904
 21
6.195600375885401
 31
0.0
  0
ARC
  5
1371A
330
1F
100
AcDbEntity
  8
0
 48
0.27
100
AcDbCircle
 10
-6.821506203400076
 20
11.43420120340003
 30
0.0
 40
1.629999999999999
100
AcDbArc
 50
276.588242868801
 51
353.4117547796018
  0
LINE
  5
1371B
330
1F
100
AcDbEntity
  8
0
 48
0.27
100
AcDbLine
 10
4.79980469999964
 20
2.899634400000064
 30
0.0
 11
4.79980469999964
 21
4.909149261700004
 31
0.0
  0
LINE
  5
1371C
330
1F
100
AcDbEntity
  8
0
 48
0.27
100
AcDbLine
 10
-4.799804699999981
 20
4.909149261700004
 30
0.0
 11
-4.799804699999981
 21
2.899634400000064
 31
0.0
  0
LINE
  5
1371D
330
1F
100
AcDbEntity
  8
0
 48
0.27
100
AcDbLine
 10
-4.799804699999981
 20
2.899634400000064
 30
0.0
 11
-7.499999999964416
 21
0.1994391000356295
 31
0.0
  0
LINE
  5
1371E
330
1F
100
AcDbEntity
  8
0
 48
0.27
100
AcDbLine
 10
7.500000000035356
 20
0.199439099964561
 30
0.0
 11
4.79980469999964
 21
2.899634400000064
 31
0.0
  0
LINE
  5
1371F
330
1F
100
AcDbEntity
  8
虛線
 48
0.27
100
AcDbLine
 10
3.750308041280959
 20
6.195600375885401
 30
0.0
 11
-3.74969195871904
 21
6.195600375885401
 31
0.0
  0
LINE
  5
13720
330
1F
100
AcDbEntity
  8
虛線
 48
0.27
100
AcDbLine
 10
2.250308041280959
 20
5.895600375885447
 30
0.0
 11
-2.24969195871904
 21
5.895600375885447
 31
0.0
  0
LINE
  5
13721
330
1F
100
AcDbEntity
  8
0
 48
0.27
100
AcDbLine
 10
-7.5
 20
7.609345046299988
 30
0.0
 11
-6.648080611200157
 21
6.757425237500097
 31
0.0
  0
LINE
  5
13722
330
1F
100
AcDbEntity
  8
0
 48
0.27
100
AcDbLine
 10
-7.499999999964416
 20
8.949454443470852
 30
0.0
 11
-7.499999999964416
 21
7.609345046300216
 31
0.0
  0
LINE
  5
13723
330
1F
100
AcDbEntity
  8
0
 48
0.27
100
AcDbLine
 10
-7.5
 20
8.949454443499956
 30
0.0
 11
-7.5
 21
7.609345046299988
 31
0.0
  0
LINE
  5
13724
330
1F
100
AcDbEntity
  8
虛線
 48
0.27
100
AcDbLine
 10
-2.24969195871904
 20
5.895600375885447
 30
0.0
 11
-2.549691958719336
 21
6.195600375885401
 31
0.0
  0
LINE
  5
13725
330
1F
100
AcDbEntity
  8
0
 48
0.27
100
AcDbLine
 10
-5.200758379900094
 20
5.310103151699973
 30
0.0
 11
-4.799804699999981
 21
4.909149261700004
 31
0.0
  0
ARC
  5
13726
330
1F
100
AcDbEntity
  8
0
 48
0.27
100
AcDbCircle
 10
-6.821506203400076
 20
5.136677396500072
 30
0.0
 40
1.629999999999999
100
AcDbArc
 50
6.107611780399468
 51
83.89239397910079
  0
LINE
  5
13727
330
1F
100
AcDbEntity
  8
0
 48
0.27
100
AcDbLine
 10
-6.634490912500041
 20
9.814965185700071
 30
0.0
 11
-7.5
 21
8.949454443499956
 31
0.0
  0
LINE
  5
13728
330
1F
100
AcDbEntity
  8
0
 48
0.27
100
AcDbLine
 10
7.500000000035356
 20
8.949454443470852
 30
0.0
 11
7.500000000035356
 21
7.609345046300216
 31
0.0
  0
LINE
  5
13729
330
1F
100
AcDbEntity
  8
0
 48
0.27
100
AcDbLine
 10
7.5
 20
7.609345046299988
 30
0.0
 11
7.5
 21
8.949454443499956
 31
0.0
  0
LINE
  5
1372A
330
1F
100
AcDbEntity
  8
虛線
 48
0.27
100
AcDbLine
 10
2.250308041280959
 20
5.895600375885447
 30
0.0
 11
2.550308041280914
 21
6.195600375885401
 31
0.0
  0
LINE
  5
1372B
330
1F
100
AcDbEntity
  8
0
 48
0.27
100
AcDbLine
 10
4.79980469999964
 20
4.909149261700004
 30
0.0
 11
5.200758379900094
 21
5.310103151699973
 31
0.0
  0
ARC
  5
1372C
330
1F
100
AcDbEntity
  8
0
 48
0.27
100
AcDbCircle
 10
6.821506203499893
 20
5.136677396500072
 30
0.0
 40
1.629999999999999
100
AcDbArc
 50
96.10760602089921
 51
173.8923882196005
  0
LINE
  5
1372D
330
1F
100
AcDbEntity
  8
0
 48
0.27
100
AcDbLine
 10
6.648080611199588
 20
6.757425237500097
 30
0.0
 11
7.5
 21
7.609345046299988
 31
0.0
  0
LINE
  5
1372E
330
1F
100
AcDbEntity
  8
0
 48
0.27
100
AcDbLine
 10
7.5
 20
8.949454443499956
 30
0.0
 11
6.634490912500041
 21
9.814965185700071
 31
0.0
  0
LINE
  5
1372F
330
1F
100
AcDbEntity
  8
虛線
 48
0.27
100
AcDbLine
 10
3.750308041280959
 20
11.29999999996439
 30
0.0
 11
-3.74969195871904
 21
11.29999999996439
 31
0.0
  0
LINE
  5
13730
330
1F
100
AcDbEntity
  8
0
 48
0.27
100
AcDbLine
 10
4.949456226317579
 20
11.49999999996445
 30
0.0
 11
-4.949456226246638
 21
11.49999999996445
 31
0.0
  0
LINE
  5
13731
330
1F
100
AcDbEntity
  8
0
 48
0.27
100
AcDbLine
 10
4.949456226299844
 20
11.49999999999998
 30
0.0
 11
-4.949456226300185
 21
11.49999999999998
 31
0.0
  0
LINE
  5
13732
330
1F
100
AcDbEntity
  8
虛線
 48
0.27
100
AcDbLine
 10
-3.74969195871904
 20
11.29999999996439
 30
0.0
 11
-3.865162012557107
 21
11.49999999996445
 31
0.0
  0
LINE
  5
13733
330
1F
100
AcDbEntity
  8
0
 48
0.27
100
AcDbLine
 10
-4.949456226300185
 20
11.49999999999998
 30
0.0
 11
-5.202270193400067
 21
11.24718584600007
 31
0.0
  0
LINE
  5
13734
330
1F
100
AcDbEntity
  8
虛線
 48
0.27
100
AcDbLine
 10
3.750308041280959
 20
11.29999999996439
 30
0.0
 11
3.865778095118912
 21
11.49999999996445
 31
0.0
  0
LINE
  5
13735
330
1F
100
AcDbEntity
  8
0
 48
0.27
100
AcDbLine
 10
5.202270193499998
 20
11.24718584600007
 30
0.0
 11
4.949456226299844
 21
11.49999999999998
 31
0.0
  0
INSERT
  5
1377A
330
1F
100
AcDbEntity
  8
0
100
AcDbBlockReference
  2
HGH15CA_F
 10
137.7708658436234
 20
0.0
 30
0.0
  0
INSERT
  5
13794
330
1F
100
AcDbEntity
  8
0
100
AcDbBlockReference
  2
C15_FWI
 10
165.4708658449261
 20
-0.0000000000649187
 30
0.0
 41
-1.0
  0
LINE
  5
13815
330
1F
100
AcDbEntity
  8
0
 48
0.27
100
AcDbLine
 10
222.3135476476282
 20
11.49984221910444
 30
0.0
 11
168.4708658778091
 21
11.49984221910445
 31
0.0
  0
LINE
  5
13817
330
1F
100
AcDbEntity
  8
0
 48
0.27
100
AcDbLine
 10
222.3135476476282
 20
0.1995788191044383
 30
0.0
 11
168.4708658449259
 21
0.1995788191044383
 31
0.0
  0
LINE
  5
13818
330
1F
100
AcDbEntity
  8
0
 48
0.27
100
AcDbLine
 10
222.3135476476282
 20
2.900200751456726
 30
0.0
 11
168.4708658449259
 21
2.899871127677645
 31
0.0
  0
LINE
  5
13819
330
1F
100
AcDbEntity
  8
0
 48
0.27
100
AcDbLine
 10
222.3135476476282
 20
4.908991480828497
 30
0.0
 11
168.4708658449259
 21
4.908991480828497
 31
0.0
  0
LINE
  5
1381A
330
1F
100
AcDbEntity
  8
0
 48
0.27
100
AcDbLine
 10
222.3135476476282
 20
5.428887297683679
 30
0.0
 11
168.4708658449259
 21
5.428887297683679
 31
0.0
  0
LINE
  5
1381B
330
1F
100
AcDbEntity
  8
0
 48
0.27
100
AcDbLine
 10
222.3135476476282
 20
6.638325639089494
 30
0.0
 11
168.4708658449259
 21
6.638325639089401
 31
0.0
  0
LINE
  5
1381C
330
1F
100
AcDbEntity
  8
0
 48
0.27
100
AcDbLine
 10
222.3135476476282
 20
7.609187265440205
 30
0.0
 11
168.4708658449259
 21
7.609187265440205
 31
0.0
  0
LINE
  5
1381D
330
1F
100
AcDbEntity
  8
0
 48
0.27
100
AcDbLine
 10
222.3135476476282
 20
8.949296662610841
 30
0.0
 11
168.4708658449259
 21
8.949296662610841
 31
0.0
  0
LINE
  5
1381E
330
1F
100
AcDbEntity
  8
0
 48
0.27
100
AcDbLine
 10
107.0708658423209
 20
9.93525500850513
 30
0.0
 11
90.76163070326179
 21
9.93525500850513
 31
0.0
  0
LINE
  5
1381F
330
1F
100
AcDbEntity
  8
0
 48
0.27
100
AcDbLine
 10
222.3135476476282
 20
11.1265802825667
 30
0.0
 11
168.4708658561781
 21
11.12658028256666
 31
0.0
  0
LINE
  5
13821
330
1F
100
AcDbEntity
  8
0
 48
0.27
100
AcDbLine
 10
80.07129014967905
 20
5.899842219104648
 30
0.0
 11
80.37129014967922
 21
6.199842219104432
 31
0.0
  0
LINE
  5
13822
330
1F
100
AcDbEntity
  8
0
 48
0.27
100
AcDbLine
 10
74.07129014967882
 20
6.199842219104432
 30
0.0
 11
81.57129014967916
 21
6.199842219104432
 31
0.0
  0
LINE
  5
13823
330
1F
100
AcDbEntity
  8
0
 48
0.27
100
AcDbLine
 10
74.07129014967882
 20
11.30424184318366
 30
0.0
 11
81.57129014967916
 21
11.30424184318366
 31
0.0
  0
LINE
  5
13824
330
1F
100
AcDbEntity
  8
0
 48
0.27
100
AcDbLine
 10
80.07129014967905
 20
-2.995758156816453
 30
0.0
 11
80.57568977375821
 21
-3.500157780895548
 31
0.0
  0
LINE
  5
13825
330
1F
100
AcDbEntity
  8
0
 48
0.27
100
AcDbLine
 10
222.3135476476282
 20
-3.500157780895492
 30
0.0
 11
57.82159819092476
 21
-3.500157780895559
 31
0.0
  0
LINE
  5
13826
330
1F
100
AcDbEntity
  8
0
 48
0.27
100
AcDbLine
 10
57.82159819092476
 20
11.49984221910444
 30
0.0
 11
57.82159819092476
 21
-3.500157780895548
 31
0.0
  0
LINE
  5
13827
330
1F
100
AcDbEntity
  8
0
 48
0.27
100
AcDbLine
 10
75.57129014967904
 20
5.899842219104648
 30
0.0
 11
75.57129014967904
 21
-2.995758156816453
 31
0.0
  0
LINE
  5
13828
330
1F
100
AcDbEntity
  8
0
 48
0.27
100
AcDbLine
 10
80.07129014967905
 20
5.899842219104648
 30
0.0
 11
80.07129014967905
 21
-2.995758156816453
 31
0.0
  0
LINE
  5
13829
330
1F
100
AcDbEntity
  8
中心線
 48
0.27
100
AcDbLine
 10
77.82159819092476
 20
12.59984221910452
 30
0.0
 11
77.82159819092476
 21
-4.500157780895492
 31
0.0
  0
LINE
  5
1382A
330
1F
100
AcDbEntity
  8
0
 48
0.27
100
AcDbLine
 10
75.57129014967904
 20
-2.995758156816453
 30
0.0
 11
80.07129014967905
 21
-2.995758156816453
 31
0.0
  0
LINE
  5
1382B
330
1F
100
AcDbEntity
  8
0
 48
0.27
100
AcDbLine
 10
75.57129014967904
 20
-2.995758156816453
 30
0.0
 11
75.06689052560045
 21
-3.500157780895548
 31
0.0
  0
LINE
  5
1382C
330
1F
100
AcDbEntity
  8
0
 48
0.27
100
AcDbLine
 10
75.57129014967904
 20
5.899842219104648
 30
0.0
 11
80.07129014967905
 21
5.899842219104648
 31
0.0
  0
LINE
  5
1382D
330
1F
100
AcDbEntity
  8
0
 48
0.27
100
AcDbLine
 10
74.07129014967882
 20
11.30424184318366
 30
0.0
 11
74.07129014967882
 21
6.199842219104432
 31
0.0
  0
LINE
  5
1382E
330
1F
100
AcDbEntity
  8
0
 48
0.27
100
AcDbLine
 10
75.57129014967904
 20
5.899842219104648
 30
0.0
 11
75.27129014967897
 21
6.199842219104432
 31
0.0
  0
LINE
  5
1382F
330
1F
100
AcDbEntity
  8
0
 48
0.27
100
AcDbLine
 10
74.07129014967882
 20
11.30424184318366
 30
0.0
 11
73.9583602199873
 21
11.49984221910444
 31
0.0
  0
LINE
  5
13830
330
1F
100
AcDbEntity
  8
0
 48
0.27
100
AcDbLine
 10
222.3135476476282
 20
-2.800206610895472
 30
0.0
 11
91.41016912345955
 21
-2.800206610895472
 31
0.0
  0
LINE
  5
13831
330
1F
100
AcDbEntity
  8
建構線
 48
0.27
100
AcDbLine
 10
91.32252068874777
 20
6.049673299398314
 30
0.0
 11
90.72424684574343
 21
2.169115071398724
 31
0.0
  0
LINE
  5
13832
330
1F
100
AcDbEntity
  8
建構線
 48
0.27
100
AcDbLine
 10
91.17295222799658
 20
-2.015103619981502
 30
0.0
 11
91.62165761025006
 21
-3.500157780895548
 31
0.0
  0
LINE
  5
13833
330
1F
100
AcDbEntity
  8
建構線
 48
0.27
100
AcDbLine
 10
91.99558029227182
 20
0.6747513719239571
 30
0.0
 11
91.17295222799658
 21
-2.015103619981502
 31
0.0
  0
LINE
  5
13834
330
1F
100
AcDbEntity
  8
建構線
 48
0.27
100
AcDbLine
 10
90.72424684574343
 20
2.169115071398724
 30
0.0
 11
91.99558029227182
 21
0.6747513719239571
 31
0.0
  0
LINE
  5
13835
330
1F
100
AcDbEntity
  8
0
 48
0.27
100
AcDbLine
 10
81.57129014967916
 20
11.30424184318366
 30
0.0
 11
81.57129014967916
 21
6.199842219104432
 31
0.0
  0
LINE
  5
13836
330
1F
100
AcDbEntity
  8
0
 48
0.27
100
AcDbLine
 10
81.57129014967916
 20
11.30424184318366
 30
0.0
 11
81.68422007937067
 21
11.49984221910444
 31
0.0
  0
LINE
  5
13837
330
1F
100
AcDbEntity
  8
建構線
 48
0.27
100
AcDbLine
 10
90.35032416372155
 20
8.370724798676128
 30
0.0
 11
91.32252068874777
 21
6.049673299398314
 31
0.0
  0
LINE
  5
13838
330
1F
100
AcDbEntity
  8
建構線
 48
0.27
100
AcDbLine
 10
91.17295222799658
 20
11.49984221910444
 30
0.0
 11
90.35032416372155
 21
8.370724798676128
 31
0.0
  0
LINE
  5
13839
330
1F
100
AcDbEntity
  8
虛線
 48
0.27
100
AcDbLine
 10
135.5712901496791
 20
0.0
 30
0.0
 11
135.5712901496791
 21
-2.995758156816453
 31
0.0
  0
LINE
  5
1383A
330
1F
100
AcDbEntity
  8
虛線
 48
0.27
100
AcDbLine
 10
140.0712901496791
 20
0.0
 30
0.0
 11
140.0712901496791
 21
-2.995758156816453
 31
0.0
  0
LINE
  5
1383B
330
1F
100
AcDbEntity
  8
中心線
 48
0.27
100
AcDbLine
 10
137.8215981909247
 20
1.49510403807352
 30
0.0
 11
137.8215981909247
 21
-4.500157780895492
 31
0.0
  0
LINE
  5
1383C
330
1F
100
AcDbEntity
  8
虛線
 48
0.27
100
AcDbLine
 10
135.5712901496791
 20
-2.995758156816453
 30
0.0
 11
140.0712901496791
 21
-2.995758156816453
 31
0.0
  0
LINE
  5
1383D
330
1F
100
AcDbEntity
  8
虛線
 48
0.27
100
AcDbLine
 10
135.5712901496791
 20
-2.995758156816453
 30
0.0
 11
135.0668905256006
 21
-3.500157780895548
 31
0.0
  0
LINE
  5
1383E
330
1F
100
AcDbEntity
  8
虛線
 48
0.27
100
AcDbLine
 10
140.0712901496791
 20
-2.995758156816453
 30
0.0
 11
140.5756897737583
 21
-3.500157780895548
 31
0.0
  0
LINE
  5
13864
330
1F
100
AcDbEntity
  8
0
 48
0.27
100
AcDbLine
 10
222.3135476476282
 20
11.49984221910444
 30
0.0
 11
222.3135476476282
 21
-3.500157780895548
 31
0.0
  0
LINE
  5
13865
330
1F
100
AcDbEntity
  8
中心線
 48
0.27
100
AcDbLine
 10
202.3135476476282
 20
12.59984221910452
 30
0.0
 11
202.3135476476282
 21
-4.500157780895492
 31
0.0
  0
LINE
  5
13866
330
1F
100
AcDbEntity
  8
虛線
 48
0.27
100
AcDbLine
 10
204.5632396063831
 20
5.899842219104648
 30
0.0
 11
204.5632396063831
 21
-2.995758156816453
 31
0.0
  0
LINE
  5
13867
330
1F
100
AcDbEntity
  8
虛線
 48
0.27
100
AcDbLine
 10
200.0632396063831
 20
5.899842219104648
 30
0.0
 11
200.0632396063831
 21
-2.995758156816453
 31
0.0
  0
LINE
  5
13868
330
1F
100
AcDbEntity
  8
虛線
 48
0.27
100
AcDbLine
 10
200.0632396063831
 20
-2.995758156816453
 30
0.0
 11
199.5588399823042
 21
-3.500157780895492
 31
0.0
  0
LINE
  5
13869
330
1F
100
AcDbEntity
  8
虛線
 48
0.27
100
AcDbLine
 10
204.5632396063831
 20
-2.995758156816453
 30
0.0
 11
205.0676392304622
 21
-3.500157780895548
 31
0.0
  0
LINE
  5
1386A
330
1F
100
AcDbEntity
  8
虛線
 48
0.27
100
AcDbLine
 10
200.0632396063831
 20
-2.995758156816453
 30
0.0
 11
204.5632396063831
 21
-2.995758156816453
 31
0.0
  0
LINE
  5
1386B
330
1F
100
AcDbEntity
  8
虛線
 48
0.27
100
AcDbLine
 10
200.0632396063831
 20
5.899842219104648
 30
0.0
 11
199.7632396063831
 21
6.199842219104432
 31
0.0
  0
LINE
  5
1386C
330
1F
100
AcDbEntity
  8
虛線
 48
0.27
100
AcDbLine
 10
198.5632396063823
 20
6.199842219104432
 30
0.0
 11
206.063239606383
 21
6.199842219104432
 31
0.0
  0
LINE
  5
1386D
330
1F
100
AcDbEntity
  8
虛線
 48
0.27
100
AcDbLine
 10
198.5632396063823
 20
11.30424184318366
 30
0.0
 11
206.063239606383
 21
11.30424184318366
 31
0.0
  0
LINE
  5
1386E
330
1F
100
AcDbEntity
  8
虛線
 48
0.27
100
AcDbLine
 10
198.5632396063823
 20
11.30424184318366
 30
0.0
 11
198.5632396063823
 21
6.199842219104432
 31
0.0
  0
LINE
  5
1386F
330
1F
100
AcDbEntity
  8
虛線
 48
0.27
100
AcDbLine
 10
198.5632396063823
 20
11.30424184318366
 30
0.0
 11
198.4503096766913
 21
11.49984221910444
 31
0.0
  0
LINE
  5
13870
330
1F
100
AcDbEntity
  8
虛線
 48
0.27
100
AcDbLine
 10
206.063239606383
 20
11.30424184318366
 30
0.0
 11
206.063239606383
 21
6.199842219104432
 31
0.0
  0
LINE
  5
13871
330
1F
100
AcDbEntity
  8
虛線
 48
0.27
100
AcDbLine
 10
204.5632396063831
 20
5.899842219104648
 30
0.0
 11
204.863239606383
 21
6.199842219104432
 31
0.0
  0
LINE
  5
13872
330
1F
100
AcDbEntity
  8
虛線
 48
0.27
100
AcDbLine
 10
200.0632396063831
 20
5.899842219104648
 30
0.0
 11
204.5632396063831
 21
5.899842219104648
 31
0.0
  0
LINE
  5
13873
330
1F
100
AcDbEntity
  8
虛線
 48
0.27
100
AcDbLine
 10
206.063239606383
 20
11.30424184318366
 30
0.0
 11
206.1761695360747
 21
11.49984221910444
 31
0.0
  0
LINE
  5
13874
330
1F
100
AcDbEntity
  8
0
 48
0.27
100
AcDbLine
 10
107.0708658310687
 20
11.12658028256663
 30
0.0
 11
91.07482368148788
 21
11.12658028256662
 31
0.0
  0
LINE
  5
13875
330
1F
100
AcDbEntity
  8
0
 48
0.27
100
AcDbLine
 10
107.0708658094378
 20
11.49984221910445
 30
0.0
 11
57.82159819092476
 21
11.49984221910445
 31
0.0
  0
LINE
  5
13876
330
1F
100
AcDbEntity
  8
0
 48
0.27
100
AcDbLine
 10
107.0708658423209
 20
8.949296662610841
 30
0.0
 11
90.50242758092329
 21
8.949296662610848
 31
0.0
  0
LINE
  5
13877
330
1F
100
AcDbEntity
  8
0
 48
0.27
100
AcDbLine
 10
107.0708658423209
 20
7.609187265440205
 30
0.0
 11
90.66930206822707
 21
7.609187265440205
 31
0.0
  0
LINE
  5
13878
330
1F
100
AcDbEntity
  8
0
 48
0.27
100
AcDbLine
 10
107.0708658423209
 20
6.638325639089302
 30
0.0
 11
91.07595754300362
 21
6.638325639089273
 31
0.0
  0
LINE
  5
13879
330
1F
100
AcDbEntity
  8
0
 48
0.27
100
AcDbLine
 10
107.0708658423209
 20
5.428887297683679
 30
0.0
 11
91.22681280212225
 21
5.428887297683679
 31
0.0
  0
LINE
  5
1387A
330
1F
100
AcDbEntity
  8
0
 48
0.27
100
AcDbLine
 10
107.0708658423209
 20
4.908991480828497
 30
0.0
 11
91.14665936799323
 21
4.908991480828497
 31
0.0
  0
LINE
  5
1387B
330
1F
100
AcDbEntity
  8
0
 48
0.27
100
AcDbLine
 10
107.0708658423209
 20
2.899495238153594
 30
0.0
 11
90.83683577353799
 21
2.899395853758875
 31
0.0
  0
LINE
  5
1387C
330
1F
100
AcDbEntity
  8
0
 48
0.27
100
AcDbLine
 10
107.0708658423209
 20
0.1995788191044383
 30
0.0
 11
91.85026008783742
 21
0.1995788191044383
 31
0.0
  0
MTEXT
  5
1387F
330
1F
100
AcDbEntity
  8
0
100
AcDbMText
 10
-16.177099919236
 20
-17.77536289469323
 30
0.0
 40
7.449612372967188
 41
70.3632
 71
     1
 72
     5
  1
\A1;{\fTimes New Roman|b0|i0|c0|p18;HGH15CA\PC\f???|b0|i0|c0|p65; \fTimes New Roman|b0|i0|c0|p18;: 1160 kgf\PC\f@標楷體|b0|i0|c136|p65;\H0.7x;\S^ 0; \fTimes New Roman|b0|i0|c0|p18;\H1.429x;: 2581 kgf}
  7
型式2
 73
     1
 44
1.0
  0
INSERT
  5
13988
330
1F
100
AcDbEntity
  8
0
100
AcDbBlockReference
  2
34310002_f
 10
0.0
 20
16.00000000000009
 30
0.0
  0
LINE
  5
1399A
330
1F
100
AcDbEntity
  8
中心線
 48
0.27
100
AcDbLine
 10
113.0462756716977
 20
16.00000000000009
 30
0.0
 11
99.9208658423208
 21
16.00000000000009
 31
0.0
  0
ARC
  5
1399B
330
1F
100
AcDbEntity
  8
0
 48
0.27
100
AcDbCircle
 10
-104.570865765592
 20
35.23347686392492
 30
0.6323677910580319
 40
1.65831239517767
210
-0.0000000000000001
220
0.8660254037844373
230
-0.5000000000000023
100
AcDbArc
 50
299.4962084965611
 51
60.50379150343132
  0
ARC
  5
1399C
330
1F
100
AcDbEntity
  8
0
 48
0.27
100
AcDbCircle
 10
104.5708657655928
 20
-37.39854037338537
 30
5.617632208941436
 40
1.658312395177813
210
0.0000000000000001
220
-0.8660254037844397
230
-0.4999999999999979
100
AcDbArc
 50
119.4962084965724
 51
240.5037915034295
  0
ARC
  5
1399D
330
1F
100
AcDbEntity
  8
0
 48
0.27
100
AcDbCircle
 10
104.5708657655924
 20
15.99932149409279
 30
-2.499999999999928
 40
1.658312395177744
100
AcDbArc
 50
119.4962084965744
 51
240.5037915034332
  0
LINE
  5
1399E
330
1F
100
AcDbEntity
  8
0
 48
0.27
100
AcDbLine
 10
103.754369261393
 20
18.8867513459482
 30
0.0
 11
108.5708658423207
 21
18.8867513459482
 31
0.0
  0
LINE
  5
1399F
330
1F
100
AcDbEntity
  8
0
 48
0.27
100
AcDbLine
 10
103.754369261393
 20
13.11324865405195
 30
0.0
 11
108.007501452755
 21
13.11324865405195
 31
0.0
  0
ARC
  5
139A0
330
1F
100
AcDbEntity
  8
0
 48
0.27
100
AcDbCircle
 10
104.5708657655923
 20
15.99932149409279
 30
0.0
 40
2.999999999999999
100
AcDbArc
 50
179.9870414916012
 51
254.2068309517417
  0
ARC
  5
139A1
330
1F
100
AcDbEntity
  8
0
 48
0.27
100
AcDbCircle
 10
101.6708658423207
 20
16.00000000000009
 30
0.0
 40
0.25
100
AcDbArc
 50
111.3333270897199
 51
248.66667291028
  0
ARC
  5
139A2
330
1F
100
AcDbEntity
  8
0
 48
0.27
100
AcDbCircle
 10
104.5708657655923
 20
15.99932149409279
 30
0.0
 40
2.999999999999998
100
AcDbArc
 50
105.7931690482683
 51
179.9870414916012
  0
LINE
  5
139A3
330
1F
100
AcDbEntity
  8
0
 48
0.27
100
AcDbLine
 10
108.5708658423207
 20
18.88675134594823
 30
0.0
 11
108.5708658423207
 21
13.11324865405195
 31
0.0
  0
LINE
  5
139A4
330
1F
100
AcDbEntity
  8
0
 48
0.27
100
AcDbLine
 10
108.5708658423207
 20
17.44269716706678
 30
2.499999999999928
 11
103.7543691846644
 21
17.44269716706678
 31
2.499999999999928
  0
LINE
  5
139A5
330
1F
100
AcDbEntity
  8
0
 48
0.27
100
AcDbLine
 10
108.5708658423207
 20
14.55594582111866
 30
2.49999999999996
 11
103.7543691846646
 21
14.55594582111866
 31
2.49999999999996
  0
POINT
  5
139A6
330
1F
100
AcDbEntity
  8
0
100
AcDbPoint
 10
101.4208658423207
 20
16.00000000000009
 30
0.0
1001
pntflag
1000
endpoint
  0
LINE
  5
139FE
330
1F
100
AcDbEntity
  8
0
100
AcDbLine
 10
157.4708658436234
 20
66.74146780011233
 30
0.0
 11
157.4708658436234
 21
100.7414678001123
 31
0.0
  0
LINE
  5
139FF
330
1F
100
AcDbEntity
  8
中心線
100
AcDbLine
 10
137.7708658436234
 20
65.74146780011233
 30
0.0
 11
137.7708658436234
 21
101.7414678001123
 31
0.0
  0
LINE
  5
13A00
330
1F
100
AcDbEntity
  8
0
100
AcDbLine
 10
118.0708658436235
 20
66.74146780011233
 30
0.0
 11
118.0708658436235
 21
100.7414678001123
 31
0.0
  0
LINE
  5
13A01
330
1F
100
AcDbEntity
  8
0
100
AcDbLine
 10
157.4708658436234
 20
99.74146780011231
 30
0.0
 11
118.0708658436235
 21
99.74146780011231
 31
0.0
  0
LINE
  5
13A02
330
1F
100
AcDbEntity
  8
0
100
AcDbLine
 10
157.4708658436234
 20
100.7414678001123
 30
0.0
 11
118.0708658436235
 21
100.7414678001123
 31
0.0
  0
LINE
  5
13A03
330
1F
100
AcDbEntity
  8
0
100
AcDbLine
 10
157.4708658436234
 20
92.79146780011215
 30
0.0
 11
118.0708658436235
 21
92.79146780011215
 31
0.0
  0
LINE
  5
13A04
330
1F
100
AcDbEntity
  8
0
100
AcDbLine
 10
157.4708658436234
 20
92.29146780011216
 30
0.0
 11
118.0708658436235
 21
92.29146780011216
 31
0.0
  0
LINE
  5
13A05
330
1F
100
AcDbEntity
  8
0
100
AcDbLine
 10
157.4708658436234
 20
86.69146780011201
 30
0.0
 11
118.0708658436235
 21
86.69146780011201
 31
0.0
  0
LINE
  5
13A06
330
1F
100
AcDbEntity
  8
0
100
AcDbLine
 10
157.4708658436234
 20
87.19146780011191
 30
0.0
 11
118.0708658436235
 21
87.19146780011202
 31
0.0
  0
LINE
  5
13A07
330
1F
100
AcDbEntity
  8
中心線
100
AcDbLine
 10
101.4208658423207
 20
83.74146780011221
 30
0.0
 11
168.5682473870458
 21
83.74146780011233
 31
0.0
  0
INSERT
  5
13A08
330
1F
100
AcDbEntity
  8
0
100
AcDbBlockReference
  2
A$C031D26F0
 10
124.7708658436234
 20
96.74146780011232
 30
0.0
 50
270.0
  0
INSERT
  5
13A09
330
1F
100
AcDbEntity
  8
0
100
AcDbBlockReference
  2
A$C031D26F0
 10
150.7708658436235
 20
96.74146780011232
 30
0.0
 50
270.0
  0
LINE
  5
13A0A
330
1F
100
AcDbEntity
  8
0
100
AcDbLine
 10
157.4708658436234
 20
80.79146780011239
 30
0.0
 11
118.0708658436235
 21
80.79146780011239
 31
0.0
  0
LINE
  5
13A0B
330
1F
100
AcDbEntity
  8
0
100
AcDbLine
 10
157.4708658436234
 20
80.29146780011227
 30
0.0
 11
118.0708658436235
 21
80.29146780011238
 31
0.0
  0
LINE
  5
13A0C
330
1F
100
AcDbEntity
  8
0
100
AcDbLine
 10
157.4708658436234
 20
74.69146780011215
 30
0.0
 11
118.0708658436235
 21
74.69146780011226
 31
0.0
  0
LINE
  5
13A0D
330
1F
100
AcDbEntity
  8
0
100
AcDbLine
 10
157.4708658436234
 20
75.19146780011215
 30
0.0
 11
118.0708658436235
 21
75.19146780011226
 31
0.0
  0
LINE
  5
13A0E
330
1F
100
AcDbEntity
  8
0
100
AcDbLine
 10
157.4708658436234
 20
67.74146780011221
 30
0.0
 11
118.0708658436235
 21
67.74146780011233
 31
0.0
  0
LINE
  5
13A0F
330
1F
100
AcDbEntity
  8
0
100
AcDbLine
 10
157.4708658436234
 20
66.74146780011233
 30
0.0
 11
118.0708658436235
 21
66.74146780011233
 31
0.0
  0
INSERT
  5
13A10
330
1F
100
AcDbEntity
  8
0
100
AcDbBlockReference
  2
A$C031D26F0
 10
124.7708658436234
 20
70.74146780011233
 30
0.0
 50
270.0
  0
INSERT
  5
13A11
330
1F
100
AcDbEntity
  8
0
100
AcDbBlockReference
  2
A$C031D26F0
 10
150.7708658436235
 20
70.74146780011232
 30
0.0
 50
270.0
  0
LINE
  5
13A14
330
1F
100
AcDbEntity
  8
0
 48
0.27
100
AcDbLine
 10
222.3135476476282
 20
76.24146780011219
 30
0.0
 11
166.9708658449262
 21
76.24146780011219
 31
0.0
  0
LINE
  5
13A15
330
1F
100
AcDbEntity
  8
0
 48
0.27
100
AcDbLine
 10
222.3135476476282
 20
91.24146780011219
 30
0.0
 11
166.9708658449262
 21
91.24146780011219
 31
0.0
  0
LINE
  5
13A16
330
1F
100
AcDbEntity
  8
0
 48
0.27
100
AcDbLine
 10
108.5708658423207
 20
76.24146780011217
 30
0.0
 11
57.82159819092475
 21
76.24146780011219
 31
0.0
  0
LINE
  5
13A17
330
1F
100
AcDbEntity
  8
0
 48
0.27
100
AcDbLine
 10
108.5708658423207
 20
91.24146780011219
 30
0.0
 11
57.82159819092476
 21
91.24146780011219
 31
0.0
  0
LINE
  5
13A18
330
1F
100
AcDbEntity
  8
0
100
AcDbLine
 10
107.0708658423209
 20
0.0
 30
0.0
 11
107.0708658423209
 21
10.91980573360007
 31
0.0
  0
LINE
  5
13A19
330
1F
100
AcDbEntity
  8
0
100
AcDbLine
 10
108.5708658423207
 20
0.0
 30
0.0
 11
108.5708658423207
 21
19.49999999999999
 31
0.0
  0
LINE
  5
13A1A
330
1F
100
AcDbEntity
  8
0
100
AcDbLine
 10
110.0708658423207
 20
19.4999999999352
 30
0.0
 11
110.0708658423207
 21
-0.0000000000649081
 31
0.0
  0
LINE
  5
13A1B
330
1F
100
AcDbEntity
  8
0
100
AcDbLine
 10
107.0708658423209
 20
0.0
 30
0.0
 11
110.0708658423207
 21
0.0
 31
0.0
  0
LINE
  5
13A1C
330
1F
100
AcDbEntity
  8
0
100
AcDbLine
 10
110.0708658423207
 20
1.0
 30
0.0
 11
108.5708658423207
 21
1.0
 31
0.0
  0
LINE
  5
13A1D
330
1F
100
AcDbEntity
  8
0
100
AcDbLine
 10
107.0708658423209
 20
12.57000000000027
 30
0.0
 11
108.5708658423207
 21
13.44
 31
0.0
  0
LINE
  5
13A1E
330
1F
100
AcDbEntity
  8
0
100
AcDbLine
 10
107.0708658423209
 20
10.93241362210001
 30
0.0
 11
107.0708657474207
 21
12.570000203
 31
0.0
  0
LINE
  5
13A1F
330
1F
100
AcDbEntity
  8
0
100
AcDbLine
 10
110.0708658423207
 20
18.50000000000012
 30
0.0
 11
108.5708658423207
 21
18.50000000000012
 31
0.0
  0
LINE
  5
13A20
330
1F
100
AcDbEntity
  8
0
100
AcDbLine
 10
110.0708658423207
 20
19.49999999999999
 30
0.0
 11
108.5708658423207
 21
19.49999999999999
 31
0.0
  0
INSERT
  5
13A21
330
1F
100
AcDbEntity
  8
0
100
AcDbBlockReference
  2
I1
 10
108.5708658423207
 20
11.00000000000002
 30
0.0
  0
LINE
  5
13A22
330
1F
100
AcDbEntity
  8
0
100
AcDbLine
 10
110.0708658423207
 20
99.94146780011233
 30
0.0
 11
110.0708658423207
 21
67.54146780011232
 31
0.0
  0
LINE
  5
13A23
330
1F
100
AcDbEntity
  8
0
100
AcDbLine
 10
108.5708658423207
 20
67.54146780011232
 30
0.0
 11
108.5708658423207
 21
99.94146780011233
 31
0.0
  0
LINE
  5
13A24
330
1F
100
AcDbEntity
  8
0
100
AcDbLine
 10
166.9708658449261
 20
67.54146780011232
 30
0.0
 11
166.9708658449261
 21
99.94146780011233
 31
0.0
  0
LINE
  5
13A25
330
1F
100
AcDbEntity
  8
0
100
AcDbLine
 10
165.4708658449262
 20
99.94146780011233
 30
0.0
 11
165.4708658449262
 21
67.54146780011232
 31
0.0
  0
ARC
  5
13A26
330
1F
100
AcDbEntity
  8
0
 48
0.27
100
AcDbCircle
 10
104.5708657655928
 20
-71.26927427344135
 30
-53.04819979560138
 40
1.658312395177813
210
0.0000000000000001
220
-0.8660254037844397
230
-0.4999999999999979
100
AcDbArc
 50
119.4962084965724
 51
240.5037915034295
  0
ARC
  5
13A27
330
1F
100
AcDbEntity
  8
0
 48
0.27
100
AcDbCircle
 10
104.5708657655924
 20
83.74078929420504
 30
-2.499999999999928
 40
1.658312395177744
100
AcDbArc
 50
119.4962084965744
 51
240.5037915034332
  0
LINE
  5
13A28
330
1F
100
AcDbEntity
  8
0
 48
0.27
100
AcDbLine
 10
103.754369261393
 20
80.85471645416419
 30
0.0
 11
108.5708658423207
 21
80.85471645416419
 31
0.0
  0
LINE
  5
13A29
330
1F
100
AcDbEntity
  8
0
 48
0.27
100
AcDbLine
 10
103.754369261393
 20
86.62821914606045
 30
0.0
 11
108.5708658423207
 21
86.62821914606045
 31
0.0
  0
ARC
  5
13A2B
330
1F
100
AcDbEntity
  8
0
 48
0.27
100
AcDbCircle
 10
104.5708657655923
 20
83.74078929420504
 30
0.0
 40
2.999999999999998
100
AcDbArc
 50
105.7931690482683
 51
179.9870414916012
  0
ARC
  5
13A2C
330
1F
100
AcDbEntity
  8
0
 48
0.27
100
AcDbCircle
 10
104.5708657655923
 20
83.74078929420504
 30
0.0
 40
2.999999999999999
100
AcDbArc
 50
179.9870414916012
 51
254.2068309517417
  0
POINT
  5
13A2D
330
1F
100
AcDbEntity
  8
0
100
AcDbPoint
 10
101.4208658423207
 20
83.74146780011233
 30
0.0
1001
pntflag
1000
endpoint
  0
ARC
  5
13A2E
330
1F
100
AcDbEntity
  8
0
 48
0.27
100
AcDbCircle
 10
101.6708658423207
 20
83.74146780011233
 30
0.0
 40
0.25
100
AcDbArc
 50
111.3333270897199
 51
248.66667291028
  0
LINE
  5
13A2F
330
1F
100
AcDbEntity
  8
0
 48
0.27
100
AcDbLine
 10
108.5708658423207
 20
82.29741362123091
 30
2.49999999999996
 11
103.7543691846646
 21
82.29741362123091
 31
2.49999999999996
  0
LINE
  5
13A30
330
1F
100
AcDbEntity
  8
0
 48
0.27
100
AcDbLine
 10
108.5708658423207
 20
85.18416496717902
 30
2.499999999999928
 11
103.7543691846644
 21
85.18416496717902
 31
2.499999999999928
  0
ARC
  5
13A31
330
1F
100
AcDbEntity
  8
0
 48
0.27
100
AcDbCircle
 10
-104.570865765592
 20
69.10421076398119
 30
59.29819979560068
 40
1.65831239517767
210
-0.0000000000000001
220
0.8660254037844373
230
-0.5000000000000023
100
AcDbArc
 50
299.4962084965611
 51
60.50379150343132
  0
INSERT
  5
13A32
330
1F
100
AcDbEntity
  8
0
100
AcDbBlockReference
  2
I1
 10
108.5708658423207
 20
70.49146780011233
 30
0.0
  0
INSERT
  5
13A36
330
1F
100
AcDbEntity
  8
0
100
AcDbBlockReference
  2
I1
 10
108.5708658423202
 20
96.99146780011115
 30
0.0
 41
-1.0
 50
180.0000000000023
  0
INSERT
  5
13A37
330
1F
100
AcDbEntity
  8
0
100
AcDbBlockReference
  2
I1
 10
166.9708658449262
 20
70.49146780011233
 30
0.0
 41
-1.0
  0
INSERT
  5
13A38
330
1F
100
AcDbEntity
  8
0
100
AcDbBlockReference
  2
I1
 10
166.9708658449267
 20
96.99146780011115
 30
0.0
 50
179.9999999999976
  0
LINE
  5
13A39
330
1F
100
AcDbEntity
  8
中心線
 48
0.27
100
AcDbLine
 10
77.82159819092476
 20
89.21533502754227
 30
0.0
 11
77.82159819092476
 21
78.26760057268211
 31
0.0
  0
LINE
  5
13A3A
330
1F
100
AcDbEntity
  8
中心線
 48
0.27
100
AcDbLine
 10
83.29546541835483
 20
83.74146780011221
 30
0.0
 11
72.34773096349468
 21
83.74146780011221
 31
0.0
  0
CIRCLE
  5
13A3B
330
1F
100
AcDbEntity
  8
0
100
AcDbCircle
 10
77.82159819092476
 20
83.74146780011219
 30
0.0
 40
3.749691958754397
  0
CIRCLE
  5
13A3C
330
1F
100
AcDbEntity
  8
0
100
AcDbCircle
 10
77.82159819092476
 20
83.74146780011219
 30
0.0
 40
2.249691958754297
  0
CIRCLE
  5
13A3D
330
1F
100
AcDbEntity
  8
0
100
AcDbCircle
 10
202.3135476476282
 20
83.74146780011219
 30
0.0
 40
2.249691958754297
  0
LINE
  5
13A3E
330
1F
100
AcDbEntity
  8
中心線
 48
0.27
100
AcDbLine
 10
202.3135476476282
 20
89.21533502754227
 30
0.0
 11
202.3135476476282
 21
78.26760057268211
 31
0.0
  0
CIRCLE
  5
13A3F
330
1F
100
AcDbEntity
  8
0
100
AcDbCircle
 10
202.3135476476282
 20
83.74146780011219
 30
0.0
 40
3.749691958754397
  0
LINE
  5
13A40
330
1F
100
AcDbEntity
  8
中心線
 48
0.27
100
AcDbLine
 10
207.7874148750583
 20
83.74146780011221
 30
0.0
 11
196.8396804201981
 21
83.74146780011221
 31
0.0
  0
LINE
  5
13A7D
330
1F
100
AcDbEntity
  8
0
100
AcDbLine
 10
57.82159819092476
 20
91.24146780011219
 30
0.0
 11
57.82159819092476
 21
76.24146780011219
 31
0.0
  0
LINE
  5
13A83
330
1F
100
AcDbEntity
  8
0
100
AcDbLine
 10
222.3135476476282
 20
91.24146780011219
 30
0.0
 11
222.3135476476282
 21
76.24146780011219
 31
0.0
  0
LINE
  5
13AA7
330
1F
100
AcDbEntity
  8
0
100
AcDbLine
 10
108.5708658423207
 20
99.94146780011233
 30
0.0
 11
118.0708658436235
 21
99.94146780011233
 31
0.0
  0
LINE
  5
13AA8
330
1F
100
AcDbEntity
  8
0
100
AcDbLine
 10
108.5708658423207
 20
67.54146780011232
 30
0.0
 11
118.0708658436235
 21
67.54146780011232
 31
0.0
  0
LINE
  5
13AA9
330
1F
100
AcDbEntity
  8
0
100
AcDbLine
 10
166.9708658449262
 20
67.54146780011232
 30
0.0
 11
157.4708658436234
 21
67.54146780011232
 31
0.0
  0
LINE
  5
13AAA
330
1F
100
AcDbEntity
  8
0
100
AcDbLine
 10
166.9708658449262
 20
99.94146780011233
 30
0.0
 11
157.4708658436234
 21
99.94146780011233
 31
0.0
  0
ENDSEC
  0
SECTION
  2
OBJECTS
  0
DICTIONARY
  5
C
330
0
100
AcDbDictionary
281
     1
  3
ACAD_COLOR
350
13437
  3
ACAD_GROUP
350
D
  3
ACAD_LAYOUT
350
1A
  3
ACAD_MATERIAL
350
13436
  3
ACAD_MLINESTYLE
350
17
  3
ACAD_PLOTSETTINGS
350
19
  3
ACAD_PLOTSTYLENAME
350
E
  3
ACDBHEADERROUNDTRIPXREC
350
13AB4
  3
ACDBVARIABLEDICTIONARY
350
4E
  0
DICTIONARY
  5
DDEF
330
2
100
AcDbDictionary
280
     1
281
     1
  3
ACAD_LAYERFILTERS
360
E68E
  3
ACAD_LAYERSTATES
360
DDF0
  0
DICTIONARY
  5
131A3
330
1F
100
AcDbDictionary
280
     1
281
     1
  3
ACAD_LAYOUTSELFREF
360
1342D
  0
DICTIONARY
  5
131A1
330
1B
100
AcDbDictionary
280
     1
281
     1
  3
ACAD_LAYOUTSELFREF
360
1342C
  0
DICTIONARY
  5
13437
102
{ACAD_REACTORS
330
C
102
}
330
C
100
AcDbDictionary
281
     1
  0
DICTIONARY
  5
D
102
{ACAD_REACTORS
330
C
102
}
330
C
100
AcDbDictionary
281
     1
  3
*A1
350
DDE2
  3
*A10
350
137A7
  3
*A11
350
137A8
  3
*A12
350
1379F
  3
*A13
350
137A9
  3
*A14
350
136D5
  3
*A15
350
136D7
  3
*A16
350
1379B
  3
*A17
350
137AA
  3
*A18
350
137AB
  3
*A19
350
DDEB
  3
*A2
350
137A3
  3
*A20
350
137AC
  3
*A21
350
136DC
  3
*A22
350
13736
  3
*A23
350
137A0
  3
*A24
350
137AD
  3
*A25
350
137AE
  3
*A26
350
136D1
  3
*A27
350
137AF
  3
*A28
350
1373A
  3
*A29
350
1373C
  3
*A3
350
137A4
  3
*A30
350
137B0
  3
*A31
350
137B1
  3
*A32
350
136D8
  3
*A33
350
DDEC
  3
*A34
350
13740
  3
*A35
350
13742
  3
*A36
350
DDED
  3
*A37
350
DDEE
  3
*A38
350
13737
  3
*A39
350
136D2
  3
*A4
350
1379A
  3
*A40
350
1379C
  3
*A41
350
136D3
  3
*A42
350
136D4
  3
*A43
350
1373D
  3
*A44
350
136D9
  3
*A45
350
137A1
  3
*A46
350
136DA
  3
*A47
350
136DB
  3
*A48
350
DDE9
  3
*A49
350
13738
  3
*A5
350
137A5
  3
*A50
350
DDE8
  3
*A51
350
13739
  3
*A52
350
DDE5
  3
*A53
350
1373E
  3
*A54
350
DDE4
  3
*A55
350
1373F
  3
*A56
350
DDE7
  3
*A57
350
13798
  3
*A58
350
136D6
  3
*A59
350
13799
  3
*A6
350
DDE3
  3
*A60
350
1379D
  3
*A61
350
136DD
  3
*A62
350
1379E
  3
*A63
350
DDEA
  3
*A64
350
1373B
  3
*A65
350
137A2
  3
*A7
350
DDE6
  3
*A8
350
13741
  3
*A9
350
137A6
  0
DICTIONARY
  5
1A
102
{ACAD_REACTORS
330
C
102
}
330
C
100
AcDbDictionary
281
     1
  3
Model
350
131AF
  3
配置1
350
131B0
  0
DICTIONARY
  5
13436
102
{ACAD_REACTORS
330
C
102
}
330
C
100
AcDbDictionary
281
     1
  0
DICTIONARY
  5
17
102
{ACAD_REACTORS
330
C
102
}
330
C
100
AcDbDictionary
281
     1
  3
STANDARD
350
18
  0
DICTIONARY
  5
19
102
{ACAD_REACTORS
330
C
102
}
330
C
100
AcDbDictionary
281
     1
  3
LANSRO
350
1AB
  0
ACDBDICTIONARYWDFLT
  5
E
102
{ACAD_REACTORS
330
C
102
}
330
C
100
AcDbDictionary
281
     1
  3
Normal
350
F
100
AcDbDictionaryWithDefault
340
F
  0
DICTIONARY
  5
13AB4
102
{ACAD_REACTORS
330
C
102
}
330
C
100
AcDbDictionary
281
     1
  3
CEPSNTYPE
350
13ABE
  3
FINGERPRINTGUID
350
13ABF
  3
HYPERLINKBASE
350
13AB7
  3
INSUNITS
350
13ABD
  3
LAYOUTDICT
350
13AB9
  3
LWETCUNION
350
13ABC
  3
PLOTSETDICT
350
13ABA
  3
PLOTSTYLNAMDICT
350
13ABB
  3
PSVPSCALE
350
13AC1
  3
PUCSBASE
350
13AC4
  3
PUCSORGBACK
350
13ACA
  3
PUCSORGBOTTOM
350
13AC6
  3
PUCSORGFRONT
350
13AC9
  3
PUCSORGLEFT
350
13AC7
  3
PUCSORGRIGHT
350
13AC8
  3
PUCSORGTOP
350
13AC5
  3
PUCSORTHOREF
350
13AC2
  3
PUCSORTHOVIEW
350
13AC3
  3
STYLESHEET
350
13AB8
  3
TSTACKALIGN
350
13AB5
  3
TSTACKSIZE
350
13AB6
  3
UCSBASE
350
13ACD
  3
UCSORGBACK
350
13AD3
  3
UCSORGBOTTOM
350
13ACF
  3
UCSORGFRONT
350
13AD2
  3
UCSORGLEFT
350
13AD0
  3
UCSORGRIGHT
350
13AD1
  3
UCSORGTOP
350
13ACE
  3
UCSORTHOREF
350
13ACB
  3
UCSORTHOVIEW
350
13ACC
  3
VERSIONGUID
350
13AC0
  0
DICTIONARY
  5
4E
102
{ACAD_REACTORS
330
C
102
}
330
C
100
AcDbDictionary
281
     1
  3
DIMASSOC
350
13518
  3
PROJECTNAME
350
13519
  3
SORTENTS
350
4F
  0
DICTIONARY
  5
E68E
102
{ACAD_REACTORS
330
DDEF
102
}
330
DDEF
100
AcDbDictionary
280
     1
281
     1
  0
DICTIONARY
  5
DDF0
102
{ACAD_REACTORS
330
DDEF
102
}
330
DDEF
100
AcDbDictionary
281
     1
  0
XRECORD
  5
1342D
102
{ACAD_REACTORS
330
131A3
102
}
330
131A3
100
AcDbXrecord
280
     1
340
1F
  0
XRECORD
  5
1342C
102
{ACAD_REACTORS
330
131A1
102
}
330
131A1
100
AcDbXrecord
280
     1
340
1B
  0
GROUP
  5
DDE2
102
{ACAD_REACTORS
330
D
102
}
330
D
100
AcDbGroup
300

 70
     1
 71
     1
  0
GROUP
  5
137A7
102
{ACAD_REACTORS
330
D
102
}
330
D
100
AcDbGroup
300

 70
     1
 71
     1
  0
GROUP
  5
137A8
102
{ACAD_REACTORS
330
D
102
}
330
D
100
AcDbGroup
300

 70
     1
 71
     1
  0
GROUP
  5
1379F
102
{ACAD_REACTORS
330
D
102
}
330
D
100
AcDbGroup
300

 70
     1
 71
     1
  0
GROUP
  5
137A9
102
{ACAD_REACTORS
330
D
102
}
330
D
100
AcDbGroup
300

 70
     1
 71
     1
  0
GROUP
  5
136D5
102
{ACAD_REACTORS
330
D
102
}
330
D
100
AcDbGroup
300

 70
     1
 71
     1
  0
GROUP
  5
136D7
102
{ACAD_REACTORS
330
D
102
}
330
D
100
AcDbGroup
300

 70
     1
 71
     1
  0
GROUP
  5
1379B
102
{ACAD_REACTORS
330
D
102
}
330
D
100
AcDbGroup
300

 70
     1
 71
     1
  0
GROUP
  5
137AA
102
{ACAD_REACTORS
330
D
102
}
330
D
100
AcDbGroup
300

 70
     1
 71
     1
  0
GROUP
  5
137AB
102
{ACAD_REACTORS
330
D
102
}
330
D
100
AcDbGroup
300

 70
     1
 71
     1
  0
GROUP
  5
DDEB
102
{ACAD_REACTORS
330
D
102
}
330
D
100
AcDbGroup
300

 70
     1
 71
     1
  0
GROUP
  5
137A3
102
{ACAD_REACTORS
330
D
102
}
330
D
100
AcDbGroup
300

 70
     1
 71
     1
  0
GROUP
  5
137AC
102
{ACAD_REACTORS
330
D
102
}
330
D
100
AcDbGroup
300

 70
     1
 71
     1
  0
GROUP
  5
136DC
102
{ACAD_REACTORS
330
D
102
}
330
D
100
AcDbGroup
300

 70
     1
 71
     1
  0
GROUP
  5
13736
102
{ACAD_REACTORS
330
D
102
}
330
D
100
AcDbGroup
300

 70
     1
 71
     1
  0
GROUP
  5
137A0
102
{ACAD_REACTORS
330
D
102
}
330
D
100
AcDbGroup
300

 70
     1
 71
     1
  0
GROUP
  5
137AD
102
{ACAD_REACTORS
330
D
102
}
330
D
100
AcDbGroup
300

 70
     1
 71
     1
  0
GROUP
  5
137AE
102
{ACAD_REACTORS
330
D
102
}
330
D
100
AcDbGroup
300

 70
     1
 71
     1
  0
GROUP
  5
136D1
102
{ACAD_REACTORS
330
D
102
}
330
D
100
AcDbGroup
300

 70
     1
 71
     1
  0
GROUP
  5
137AF
102
{ACAD_REACTORS
330
D
102
}
330
D
100
AcDbGroup
300

 70
     1
 71
     1
  0
GROUP
  5
1373A
102
{ACAD_REACTORS
330
D
102
}
330
D
100
AcDbGroup
300

 70
     1
 71
     1
  0
GROUP
  5
1373C
102
{ACAD_REACTORS
330
D
102
}
330
D
100
AcDbGroup
300

 70
     1
 71
     1
  0
GROUP
  5
137A4
102
{ACAD_REACTORS
330
D
102
}
330
D
100
AcDbGroup
300

 70
     1
 71
     1
  0
GROUP
  5
137B0
102
{ACAD_REACTORS
330
D
102
}
330
D
100
AcDbGroup
300

 70
     1
 71
     1
  0
GROUP
  5
137B1
102
{ACAD_REACTORS
330
D
102
}
330
D
100
AcDbGroup
300

 70
     1
 71
     1
  0
GROUP
  5
136D8
102
{ACAD_REACTORS
330
D
102
}
330
D
100
AcDbGroup
300

 70
     1
 71
     1
  0
GROUP
  5
DDEC
102
{ACAD_REACTORS
330
D
102
}
330
D
100
AcDbGroup
300

 70
     1
 71
     1
  0
GROUP
  5
13740
102
{ACAD_REACTORS
330
D
102
}
330
D
100
AcDbGroup
300

 70
     1
 71
     1
  0
GROUP
  5
13742
102
{ACAD_REACTORS
330
D
102
}
330
D
100
AcDbGroup
300

 70
     1
 71
     1
  0
GROUP
  5
DDED
102
{ACAD_REACTORS
330
D
102
}
330
D
100
AcDbGroup
300

 70
     1
 71
     1
  0
GROUP
  5
DDEE
102
{ACAD_REACTORS
330
D
102
}
330
D
100
AcDbGroup
300

 70
     1
 71
     1
  0
GROUP
  5
13737
102
{ACAD_REACTORS
330
D
102
}
330
D
100
AcDbGroup
300

 70
     1
 71
     1
  0
GROUP
  5
136D2
102
{ACAD_REACTORS
330
D
102
}
330
D
100
AcDbGroup
300

 70
     1
 71
     1
  0
GROUP
  5
1379A
102
{ACAD_REACTORS
330
D
102
}
330
D
100
AcDbGroup
300

 70
     1
 71
     1
  0
GROUP
  5
1379C
102
{ACAD_REACTORS
330
D
102
}
330
D
100
AcDbGroup
300

 70
     1
 71
     1
  0
GROUP
  5
136D3
102
{ACAD_REACTORS
330
D
102
}
330
D
100
AcDbGroup
300

 70
     1
 71
     1
  0
GROUP
  5
136D4
102
{ACAD_REACTORS
330
D
102
}
330
D
100
AcDbGroup
300

 70
     1
 71
     1
  0
GROUP
  5
1373D
102
{ACAD_REACTORS
330
D
102
}
330
D
100
AcDbGroup
300

 70
     1
 71
     1
  0
GROUP
  5
136D9
102
{ACAD_REACTORS
330
D
102
}
330
D
100
AcDbGroup
300

 70
     1
 71
     1
  0
GROUP
  5
137A1
102
{ACAD_REACTORS
330
D
102
}
330
D
100
AcDbGroup
300

 70
     1
 71
     1
  0
GROUP
  5
136DA
102
{ACAD_REACTORS
330
D
102
}
330
D
100
AcDbGroup
300

 70
     1
 71
     1
  0
GROUP
  5
136DB
102
{ACAD_REACTORS
330
D
102
}
330
D
100
AcDbGroup
300

 70
     1
 71
     1
  0
GROUP
  5
DDE9
102
{ACAD_REACTORS
330
D
102
}
330
D
100
AcDbGroup
300

 70
     1
 71
     1
  0
GROUP
  5
13738
102
{ACAD_REACTORS
330
D
102
}
330
D
100
AcDbGroup
300

 70
     1
 71
     1
  0
GROUP
  5
137A5
102
{ACAD_REACTORS
330
D
102
}
330
D
100
AcDbGroup
300

 70
     1
 71
     1
  0
GROUP
  5
DDE8
102
{ACAD_REACTORS
330
D
102
}
330
D
100
AcDbGroup
300

 70
     1
 71
     1
  0
GROUP
  5
13739
102
{ACAD_REACTORS
330
D
102
}
330
D
100
AcDbGroup
300

 70
     1
 71
     1
  0
GROUP
  5
DDE5
102
{ACAD_REACTORS
330
D
102
}
330
D
100
AcDbGroup
300

 70
     1
 71
     1
  0
GROUP
  5
1373E
102
{ACAD_REACTORS
330
D
102
}
330
D
100
AcDbGroup
300

 70
     1
 71
     1
  0
GROUP
  5
DDE4
102
{ACAD_REACTORS
330
D
102
}
330
D
100
AcDbGroup
300

 70
     1
 71
     1
  0
GROUP
  5
1373F
102
{ACAD_REACTORS
330
D
102
}
330
D
100
AcDbGroup
300

 70
     1
 71
     1
  0
GROUP
  5
DDE7
102
{ACAD_REACTORS
330
D
102
}
330
D
100
AcDbGroup
300

 70
     1
 71
     1
  0
GROUP
  5
13798
102
{ACAD_REACTORS
330
D
102
}
330
D
100
AcDbGroup
300

 70
     1
 71
     1
  0
GROUP
  5
136D6
102
{ACAD_REACTORS
330
D
102
}
330
D
100
AcDbGroup
300

 70
     1
 71
     1
  0
GROUP
  5
13799
102
{ACAD_REACTORS
330
D
102
}
330
D
100
AcDbGroup
300

 70
     1
 71
     1
  0
GROUP
  5
DDE3
102
{ACAD_REACTORS
330
D
102
}
330
D
100
AcDbGroup
300

 70
     1
 71
     1
  0
GROUP
  5
1379D
102
{ACAD_REACTORS
330
D
102
}
330
D
100
AcDbGroup
300

 70
     1
 71
     1
  0
GROUP
  5
136DD
102
{ACAD_REACTORS
330
D
102
}
330
D
100
AcDbGroup
300

 70
     1
 71
     1
  0
GROUP
  5
1379E
102
{ACAD_REACTORS
330
D
102
}
330
D
100
AcDbGroup
300

 70
     1
 71
     1
  0
GROUP
  5
DDEA
102
{ACAD_REACTORS
330
D
102
}
330
D
100
AcDbGroup
300

 70
     1
 71
     1
  0
GROUP
  5
1373B
102
{ACAD_REACTORS
330
D
102
}
330
D
100
AcDbGroup
300

 70
     1
 71
     1
  0
GROUP
  5
137A2
102
{ACAD_REACTORS
330
D
102
}
330
D
100
AcDbGroup
300

 70
     1
 71
     1
  0
GROUP
  5
DDE6
102
{ACAD_REACTORS
330
D
102
}
330
D
100
AcDbGroup
300

 70
     1
 71
     1
  0
GROUP
  5
13741
102
{ACAD_REACTORS
330
D
102
}
330
D
100
AcDbGroup
300

 70
     1
 71
     1
  0
GROUP
  5
137A6
102
{ACAD_REACTORS
330
D
102
}
330
D
100
AcDbGroup
300

 70
     1
 71
     1
  0
LAYOUT
  5
131AF
102
{ACAD_XDICTIONARY
360
13514
102
}
102
{ACAD_REACTORS
330
1A
102
}
330
1A
100
AcDbPlotSettings
  1

  2
HP 2200
  4

  6

 40
0.0
 41
0.0
 42
0.0
 43
0.0
 44
0.0
 45
0.0
 46
0.0
 47
0.0
 48
0.0
 49
0.0
140
0.0
141
0.0
142
1.0
143
1.0
 70
  1712
 72
     0
 73
     0
 74
     0
  7
AAA.ctb
 75
     0
147
1.0
148
0.0
149
0.0
100
AcDbLayout
  1
Model
 70
     1
 71
     0
 10
0.0
 20
0.0
 11
12.0
 21
9.0
 12
0.0
 22
0.0
 32
0.0
 14
0.0
 24
0.0
 34
0.0
 15
0.0
 25
0.0
 35
0.0
146
0.0
 13
0.0
 23
0.0
 33
0.0
 16
1.0
 26
0.0
 36
0.0
 17
0.0
 27
1.0
 37
0.0
 76
     0
330
1F
  0
LAYOUT
  5
131B0
102
{ACAD_XDICTIONARY
360
13516
102
}
102
{ACAD_REACTORS
330
1A
102
}
330
1A
100
AcDbPlotSettings
  1

  2
HP 2200
  4

  6

 40
0.0
 41
0.0
 42
0.0
 43
0.0
 44
0.0
 45
0.0
 46
0.0
 47
0.0
 48
0.0
 49
0.0
140
0.0
141
0.0
142
1.0
143
1.0
 70
   688
 72
     0
 73
     0
 74
     5
  7
AAA.ctb
 75
    16
147
1.0
148
0.0
149
0.0
100
AcDbLayout
  1
配置1
 70
     1
 71
     1
 10
0.0
 20
0.0
 11
420.0
 21
297.0
 12
0.0
 22
0.0
 32
0.0
 14
1.000000000000000E+20
 24
1.000000000000000E+20
 34
1.000000000000000E+20
 15
-1.000000000000000E+20
 25
-1.000000000000000E+20
 35
-1.000000000000000E+20
146
0.0
 13
0.0
 23
0.0
 33
0.0
 16
1.0
 26
0.0
 36
0.0
 17
0.0
 27
1.0
 37
0.0
 76
     0
330
1B
  0
MLINESTYLE
  5
18
102
{ACAD_REACTORS
330
17
102
}
330
17
100
AcDbMlineStyle
  2
STANDARD
 70
     0
  3

 62
   256
 51
90.0
 52
90.0
 71
     2
 49
0.5
 62
   256
  6
BYLAYER
 49
-0.5
 62
   256
  6
BYLAYER
  0
PLOTSETTINGS
  5
1AB
102
{ACAD_XDICTIONARY
360
13510
102
}
102
{ACAD_REACTORS
330
19
102
}
330
19
100
AcDbPlotSettings
  1
LANSRO
  2
\\1260\HP2200
  4
A4
  6

 40
6.043083190917967
 41
6.762742042541503
 42
7.736419677734375
 43
5.027069091796875
 44
209.9733276367186
 45
296.9683227539062
 46
5.15
 47
0.0
 48
0.0
 49
0.0
140
0.0
141
0.0
142
1.0
143
0.8829829263240881
 70
  1716
 72
     1
 73
     1
 74
     0
  7
AAA.ctb
 75
     0
147
1.132524729739748
148
-132.2970149058029
149
-71.78507365635891
  0
ACDBPLACEHOLDER
  5
F
102
{ACAD_REACTORS
330
E
102
}
330
E
  0
XRECORD
  5
13ABE
102
{ACAD_REACTORS
330
13AB4
102
}
330
13AB4
100
AcDbXrecord
280
     1
 90
        0
  0
XRECORD
  5
13ABF
102
{ACAD_REACTORS
330
13AB4
102
}
330
13AB4
100
AcDbXrecord
280
     1
  1
{39E6D4C8-9137-4BAE-85E5-615910EF8948}
  0
XRECORD
  5
13AB7
102
{ACAD_REACTORS
330
13AB4
102
}
330
13AB4
100
AcDbXrecord
280
     1
  1

  0
XRECORD
  5
13ABD
102
{ACAD_REACTORS
330
13AB4
102
}
330
13AB4
100
AcDbXrecord
280
     1
 90
        4
  0
XRECORD
  5
13AB9
102
{ACAD_REACTORS
330
13AB4
102
}
330
13AB4
100
AcDbXrecord
280
     1
340
1A
  0
XRECORD
  5
13ABC
102
{ACAD_REACTORS
330
13AB4
102
}
330
13AB4
100
AcDbXrecord
280
     1
 90
    10781
  0
XRECORD
  5
13ABA
102
{ACAD_REACTORS
330
13AB4
102
}
330
13AB4
100
AcDbXrecord
280
     1
340
19
  0
XRECORD
  5
13ABB
102
{ACAD_REACTORS
330
13AB4
102
}
330
13AB4
100
AcDbXrecord
280
     1
340
E
  0
XRECORD
  5
13AC1
102
{ACAD_REACTORS
330
13AB4
102
}
330
13AB4
100
AcDbXrecord
280
     1
 40
0.0
  0
XRECORD
  5
13AC4
102
{ACAD_REACTORS
330
13AB4
102
}
330
13AB4
100
AcDbXrecord
280
     1
340
0
  0
XRECORD
  5
13ACA
102
{ACAD_REACTORS
330
13AB4
102
}
330
13AB4
100
AcDbXrecord
280
     1
 10
0.0
 20
0.0
 30
0.0
  0
XRECORD
  5
13AC6
102
{ACAD_REACTORS
330
13AB4
102
}
330
13AB4
100
AcDbXrecord
280
     1
 10
0.0
 20
0.0
 30
0.0
  0
XRECORD
  5
13AC9
102
{ACAD_REACTORS
330
13AB4
102
}
330
13AB4
100
AcDbXrecord
280
     1
 10
0.0
 20
0.0
 30
0.0
  0
XRECORD
  5
13AC7
102
{ACAD_REACTORS
330
13AB4
102
}
330
13AB4
100
AcDbXrecord
280
     1
 10
0.0
 20
0.0
 30
0.0
  0
XRECORD
  5
13AC8
102
{ACAD_REACTORS
330
13AB4
102
}
330
13AB4
100
AcDbXrecord
280
     1
 10
0.0
 20
0.0
 30
0.0
  0
XRECORD
  5
13AC5
102
{ACAD_REACTORS
330
13AB4
102
}
330
13AB4
100
AcDbXrecord
280
     1
 10
0.0
 20
0.0
 30
0.0
  0
XRECORD
  5
13AC2
102
{ACAD_REACTORS
330
13AB4
102
}
330
13AB4
100
AcDbXrecord
280
     1
340
0
  0
XRECORD
  5
13AC3
102
{ACAD_REACTORS
330
13AB4
102
}
330
13AB4
100
AcDbXrecord
280
     1
 70
     0
  0
XRECORD
  5
13AB8
102
{ACAD_REACTORS
330
13AB4
102
}
330
13AB4
100
AcDbXrecord
280
     1
  1
AAA.ctb
  0
XRECORD
  5
13AB5
102
{ACAD_REACTORS
330
13AB4
102
}
330
13AB4
100
AcDbXrecord
280
     1
 90
        1
  0
XRECORD
  5
13AB6
102
{ACAD_REACTORS
330
13AB4
102
}
330
13AB4
100
AcDbXrecord
280
     1
 90
       70
  0
XRECORD
  5
13ACD
102
{ACAD_REACTORS
330
13AB4
102
}
330
13AB4
100
AcDbXrecord
280
     1
340
0
  0
XRECORD
  5
13AD3
102
{ACAD_REACTORS
330
13AB4
102
}
330
13AB4
100
AcDbXrecord
280
     1
 10
0.0
 20
0.0
 30
0.0
  0
XRECORD
  5
13ACF
102
{ACAD_REACTORS
330
13AB4
102
}
330
13AB4
100
AcDbXrecord
280
     1
 10
0.0
 20
0.0
 30
0.0
  0
XRECORD
  5
13AD2
102
{ACAD_REACTORS
330
13AB4
102
}
330
13AB4
100
AcDbXrecord
280
     1
 10
0.0
 20
0.0
 30
0.0
  0
XRECORD
  5
13AD0
102
{ACAD_REACTORS
330
13AB4
102
}
330
13AB4
100
AcDbXrecord
280
     1
 10
0.0
 20
0.0
 30
0.0
  0
XRECORD
  5
13AD1
102
{ACAD_REACTORS
330
13AB4
102
}
330
13AB4
100
AcDbXrecord
280
     1
 10
0.0
 20
0.0
 30
0.0
  0
XRECORD
  5
13ACE
102
{ACAD_REACTORS
330
13AB4
102
}
330
13AB4
100
AcDbXrecord
280
     1
 10
0.0
 20
0.0
 30
0.0
  0
XRECORD
  5
13ACB
102
{ACAD_REACTORS
330
13AB4
102
}
330
13AB4
100
AcDbXrecord
280
     1
340
0
  0
XRECORD
  5
13ACC
102
{ACAD_REACTORS
330
13AB4
102
}
330
13AB4
100
AcDbXrecord
280
     1
 70
     0
  0
XRECORD
  5
13AC0
102
{ACAD_REACTORS
330
13AB4
102
}
330
13AB4
100
AcDbXrecord
280
     1
  1
{2FD83E1C-58EF-4A3A-B73B-F32652AB5A9A}
  0
DICTIONARYVAR
  5
13518
102
{ACAD_REACTORS
330
4E
102
}
330
4E
100
DictionaryVariables
280
     0
  1
1
  0
DICTIONARYVAR
  5
13519
102
{ACAD_REACTORS
330
4E
102
}
330
4E
100
DictionaryVariables
280
     0
  1

  0
DICTIONARYVAR
  5
4F
102
{ACAD_REACTORS
330
4E
102
}
330
4E
100
DictionaryVariables
280
     0
  1
96
  0
DICTIONARY
  5
13514
330
131AF
100
AcDbDictionary
280
     1
281
     1
  3
ACAD_XREC_ROUNDTRIP
360
13515
  0
DICTIONARY
  5
13516
330
131B0
100
AcDbDictionary
280
     1
281
     1
  3
ACAD_XREC_ROUNDTRIP
360
13517
  0
DICTIONARY
  5
13510
330
1AB
100
AcDbDictionary
280
     1
281
     1
  3
ACAD_XREC_ROUNDTRIP
360
13511
  0
XRECORD
  5
13515
102
{ACAD_REACTORS
330
13514
102
}
330
13514
100
AcDbXrecord
280
     1
102
SHADEPLOT
 70
     0
102
SHADEPLOTRESLEVEL
 70
     2
102
SHADEPLOTCUSTOMDPI
 70
   300
  0
XRECORD
  5
13517
102
{ACAD_REACTORS
330
13516
102
}
330
13516
100
AcDbXrecord
280
     1
102
SHADEPLOT
 70
     0
102
SHADEPLOTRESLEVEL
 70
     2
102
SHADEPLOTCUSTOMDPI
 70
   300
  0
XRECORD
  5
13511
102
{ACAD_REACTORS
330
13510
102
}
330
13510
100
AcDbXrecord
280
     1
102
SHADEPLOT
 70
     0
102
SHADEPLOTRESLEVEL
 70
     2
102
SHADEPLOTCUSTOMDPI
 70
   300
  0
ENDSEC
  0
EOF
